Oops, an error
Loading. Please wait.

Rock Show Live Tab

version 1
version 1

Whole song

Interactive

3,137 views 3 this week
2 commentsread comments
1 2 3 4 5
not so good
x 4
add to favorites
launch autoscroll
font size
0
reset
how to read this tab
guitar tuner
Tab Pro tools
  • play this tab
  • loop segment
  • change instrument
  • show fretboard
  • metronome
Autoscroll
slow
fast
+/-
esc
set tempo
stop
Blink 182
The Rock Show Live
Take Off Your Pants And Jacket
Tabbed By Ben

OK this is the correct way to play The Rock Show you guys have been
doing it all wrong... I saw Tom play it live so her you go

Intro:
e---------------------------------------------------------------------|
B---------------------------------------------------------------------|
G---------------------------------------------------------------------|
D--------2-0----------play four---------------------------------------|
A--0-0-0-----4p0-2p0--times-------------------------------------------|
E---------------------------------------------------------------------|

e---------------------------------------------------------------------|
B---------------------------------------------------------------------|
G---------------------------------------------------------------------|
D---------------------------------------------------------------------|
A--77777777777777777777--play-----------------------------------------|
E--55555555555555555555--palm muted-----------------------------------|

Verse:
e---------------------------------------------------------------------|
B---------------------------------------------------------------------|
G-----------------------------7------------------9--------------------|
D--7--------------------------7-xxxxxxxx---------9-xxxxxxxx-----------|
A--7-xxxxxxxxxxxxxxxx---------5-xxxxxxxx---------7-xxxxxxxx-----------|
E--5-xxxxxxxxxxxxxxxx-------------------------------------------------|
   Hanging ou behind...       Acting stupid...   Drunk with my best...
   STRUM THE NOTE ON THE WORD THAN PALM MUTE
Chorus:
e---------------------------------------------------------------------|
B---------------------------------------------------------------------|
G-----------------------------------------7---------------------------|
D-------7---7---7---7----4----------------7---------------------------|
A-------7---7---7---7----4----------------5---------------------------|
E-------5---5---5---5----2--------------------------------------------|
Because I fell in love   with the girl    at the rock show...
        She said what    and I told her   that I didn't know...
        LISTEN TO THE CD HERE TO GET TIMINGS CORRECT
Solo:
e---------------------------------------------------------------------|
B--2---2---2---3---2---2---2---3--------------------------------------|
G----2---2---2---2---2---2---2---2--x2--------------------------------|
D---------------------------------------------------------------------|
A---------------------------------------------------------------------|
E---------------------------------------------------------------------|

That's it just put it all together which isn't hard and there ya go.
comments
print report bad tab
2 comments total.
0 reply
AVAguitar182 wrote on March 22 2007, 09:40 pm

the solo is better this way

e-----------------------------------------------------------------|
B--3---3---4---3---3---4------------------------------------------|
G----3---3-------3---3-----5--------------------------------------|
D-----------------------------------------------------------------|
A-----------------------------------------------------------------|
E-----------------------------------------------------------------|

0 reply
Hass123456 wrote on July 28 2007, 06:07 pm

I can't wait til her parents go outa town...

You missed the part where tom does upstrokes on the live version, or somple palm mute it from the recorded verions.

Either way, you need to pplay something on guitar or it sounds kack,

the interlude also has parts missing. After the intial part that you have tabbed, there another part,.

I want to post or [tab]
guest
You may want to rate the tab now too:
select rating
Please do not post tabs as comments. Select "correction" instead!