Oops, an error
Loading. Please wait.

Rock Show Chords

version 2
version 2

Whole song

Interactive

Video

27,999 views 189 this week
1 commentread comment
1 2 3 4 5
excellent!
x 44
add to favorites
launch autoscroll
font size
0
reset
transpose
0
reset
display chords
guitar tuner
Tab Pro tools
  • play this tab
  • loop segment
  • change instrument
  • show fretboard
  • metronome
×
Best way to learn
"Rock Show"
Autoscroll
slow
fast
+/-
esc
set tempo
stop
Contributor
The Rock Show

Key: A

Tuning: Standard EADGBe

Chords used:
A -   x02220
E -   022100
F#m - 244222
D -   xx0232
C#m - x46654


Intro: A--D--E-- x2, A

Tom:
e|-------------------------|
B|-------------------------|
G|-------------------------|
D|-------------------------| x4
A|-------7-7-7-5-5-5-4-4-4-|
E|-5-5-5-------------------|


Verse 1:
A
 Hanging out behind the
club at the weekends
D
 Acting stupid getting
E
drunk with my best friends
A
 I couldn´t wait for the
summer and the Warped Tour
D                     E
 I remember it´s the first
time I saw her there


Interlude: A--D--E-- x2


Verse 2:
A
  She´s getting kicked out of
school because she´s failing
D
  I´m kind of nervous cause I
E
think all her friends hate me
A
  She´s the one she´ll
always be there
D
  She took my hand and
     E
that made it I swear


Chorus:
          A
Because I fell in love with
    F#m         D
the girl at the rock show
A
She said "What" and I
F#m             D
told her that I didn´t know
A
She´s so cool I´m gonna
F#m                  D
sneak in through her window
E
Everything´s better
     D
when she´s around
  E
I can´t wait til her
           D
parents go out of town
  E
I fell in love with the
D           C#m
girl at the rock show


Interlude: A--D--E-- x2


Verse 3:
A
  When we said were
gonna move to Vegas
D                E
  I remember the look
her mother gave us
A
  Seventeen without a
purpose or direction
D
  We don´t owe anyone a
E
fucking explanation


(Repeat Chorus)


Bridge:
F#m
  Black and white picture
D
of her on my wall
         A
I waited for her call
           E
She always kept me waiting
F#m
  And if I ever got
 D
another chance
              A
I´d still ask her to dance
            E       D
Because she kept me waiting


Tom:
e|---------------------------------|
B|-2---2---2---3---2---2---2---3---|
G|---2---2---2---2---2---2---2---2-|
D|---------------------------------| x2
A|---------------------------------|
E|---------------------------------|


Mark:
G|-----------------------------------------------|
D|-----------------------------------------------|
A|-9-9-9-9-7-7-5-5-5-5-5-0-2-4-0-0-0-0-0---------|
E|---------------------------------------0-0-0-0-|

G|-----------------------------------------------|
D|---------------------------------------2-2-0-0-|
A|-9-9-9-9-7-7-5-5-5-5-5-0-2-4-0-0-0-0-0---------|
E|-----------------------------------------------|


(Repeat Chorus)


Outro:
A           D   E
  I´ll never forget tonight
(Repeat until fade)
comments
print report bad tab
1 comment total.
0 reply
lillysucks wrote on October 6 2013, 02:36 pm

perfection

I want to post or [tab]
guest
You may want to rate the tab now too:
select rating
Please do not post tabs as comments. Select "correction" instead!