Oops, an error
Loading. Please wait.

Rock Show Tab

version 2
version 2
32,012 views 1 this week
5 commentsread comments
1 2 3 4 5
worth learning
x 10
add to favorites
launch autoscroll
font size
0
reset
how to read this tab
guitar tuner
Tab Pro tools
  • play this tab
  • loop segment
  • change instrument
  • show fretboard
  • metronome
×
Best way to learn
"Rock Show"
Autoscroll
slow
fast
+/-
esc
set tempo
stop
Blink-182, The Rock Show, Take Off Your Pants And Jacket.
 Tabbed by Reid, Sk8rfreak540@aol.com.
  
Intro
---------------------------------------------
---------------------------------------------
-----------------77777777-99999999-----------
7777777777777777-77777777-99999999-----------Repeat x1
7777777777777777-55555555-77777777-----------
5555555555555555--------------------

Riff1
---------------------------------------------
---------------------------------------------
---------------------------------------------
----------------------------------------
-7-5---4-0------7--5--4-7-4-0---------------------
-----------2-0---------------------------------
Verse
-----------------------------------------
-----------------------------------------
------------7-------------9--------------
--7---------7-------------9--------------
--7---------5-------------7--------------   X1
--5--------------------------------------
Do the intro again

Chorus

--------------------------------------
--------------------------------------
--6--7--9-----7-----------------------
--6--7--9--4--7-----------------------repeat x2
--4--5--7--4--5-----------------------
-----------2-------------------------- 
intro/interlude with riff 1 

Verse(but dont repeat)

Chorus

Interlude2
------------------------------------------
--2-----2-----2-----3----2----2---2---3---
-----2------2----2-----2----2---2---2----2  X2
------------------------------------------
------------------------------------------
------------------------------------------

--------------------------------------
--------------------------------------
--------------------7777777777777777--
--4444444444444444--7777777777777777--
--4444444444444444--5555555555555555--
--2222222222222222--------------------

--------------------------------------
--------------------------------------
--------------------99999999--77777777--
--7777777777777777--99999999--77777777--
--7777777777777777--77777777--55555555--
--5555555555555555--------------------

Chorus

Then do the intro and the Riff alota times.

email me if u think something is wrong......on version 9 something got messed up so this may be right  
:: Ultimate Guitar Archive :: 
http://www.ultimate-guitar.com 



comments
print report bad tab
5 comments total. Showing first comments.
0 reply
gibbybm wrote on December 7 2006, 06:26 pm

sounds completely wrong to me.

0 reply
madmetalmike wrote on November 15 2007, 03:35 pm

wow this is wrong?...

0 reply
madmetalmike wrote on November 15 2007, 03:36 pm

wow, this is wrong?....

I want to post or [tab]
guest
You may want to rate the tab now too:
select rating
Please do not post tabs as comments. Select "correction" instead!