Oops, an error
Loading. Please wait.

Rock Show Tab

version 3
version 3
14,425 views 15 this week
6 commentsread comments
1 2 3 4 5
worth learning
x 10
add to favorites
launch autoscroll
font size
0
reset
how to read this tab
guitar tuner
Tab Pro tools
  • play this tab
  • loop segment
  • change instrument
  • show fretboard
  • metronome
×
Best way to learn
"Rock Show"
Autoscroll
slow
fast
+/-
esc
set tempo
stop
Artist: Blink-182
Album: Take Off Your Pants And Jacket
Song: "The Rock Show"
Tabbed By: Phill524@Aol.com

Standard Tuning
x = Palm Mute

Intro. Play 2x
E:-----------------------------------------------------------------------------------------------
B:-----------------------------------------------------------------------------------------------
G:-----------------------------------------------------------------------------------------------
D:--------------2----------0----------------------------------------2---------0----------------2-
A:-----0000------000-------000-----4--0--4--0-----0000-----000-------000-----4----4---0----------
E:-----------------------------------------------------------------------------------------------

Play This Little Part Before The Verse:
E:-----------------------------------------------------------------------------------------------
B:-----------------------------------------------------------------------------------------------
G:-----------------------------------------------------------------------------------------------
D:-----------------------------------------------------------------------------------------------
A:------------------------------------------7xxxxxxxxxxxxxxxx------------------------------------
E:------------------------------------------5xxxxxxxxxxxxxxxx------------------------------------

Verse: Play 2x
E:-----------------------------------------------------------------------------------------------
B:-----------------------------------------------------------------------------------------------
G:-----------------------------------------------------------------------------------------------
D:------------------------------------7xxxxxx-------9xxxxxx--------------------------------------
A:------7xxxxxxxxxxxxxx----5xxxxxx-------7xxxxxx-------------------------------------------------
E:------5xxxxxxxxxxxxxx--------------------------------------------------------------------------

Chorus: Play 1x
E:-----------------------------------------------------------------------------------------------
B:-----------------------------------------------------------------------------------------------
G:-----------------------777----------------------777---------------------777--------------------
D:----777-----444----777----777----444---777----777---444----777---------------------------------
A:----777-----444----555----777----444---555----777---444----555---------------------------------
E:----555-----222-------------555----222------------555----222-----------------------------------

E:-----------------------------------------------------------------------------------------------
B:-----------------------------------------------------------------------------------------------
G:-----------------------------------------------------------------------------------------------
D:-------------------------7xxxxxxxx-----------------------7xxxxxxxx---------------------7-----7-
A:-----2xxxxxxxx----5xxxxxxxx---2xxxxxxxx----5xxxxxxxx---0xx0xx0------5-----4--------------------
E:-----0xxxxxxxx-----------------------0xxxxxxxx----------------------2xx2xx2--------------------

Bridge: Play 8x - Clean
E:-----------------------------------------------------------------------------------------------
B:-----2------2-------3--------------------------------------------------------------------------
G:--------2-------2-------2----------------------------------------------------------------------
D:-----------------------------------------------------------------------------------------------
A:-----------------------------------------------------------------------------------------------
E:-----------------------------------------------------------------------------------------------

Order:
Intro - 2x
The Little Part Before The Verse - 1x
Verse - 2x
Intro - 2x
Verse - This Time Let The "A" Chord Ring
Chorus - 1x
Intro - 2x
Verse - 2x
Chorus - 1x
Bridge - 8x
Chorus - 1x
Intro - As Long As You Want

This is the closest I've been to perfecting the song so far.  Let me know if 
there are any changes needed at (Phill524@Aol.com).  Enjoy!
comments
print report bad tab
6 comments total. Showing first comments.
-1 reply
fenderstrato07 wrote on December 31 2005, 02:07 pm

Good tab man keep um comming

0 reply
HurricaneSG wrote on February 20 2006, 08:26 am

bullshit????????????

+1 reply
Dude... wrote on September 10 2006, 03:11 pm

Awesome Tab Bro. The others seemed way off,Keep It up!

I want to post or [tab]
guest
You may want to rate the tab now too:
select rating
Please do not post tabs as comments. Select "correction" instead!