Oops, an error
Loading. Please wait.

Rock Show Tab

version 5
version 5

Intro

Interactive

Video

32,205 views 12 this week
6 commentsread comments
1 2 3 4 5
worth learning
x 14
add to favorites
launch autoscroll
font size
0
reset
how to read this tab
guitar tuner
Tab Pro tools
  • play this tab
  • loop segment
  • change instrument
  • show fretboard
  • metronome
Autoscroll
slow
fast
+/-
esc
set tempo
stop
Blink 182 - The Rock Show
T.O.Y.P.A.J.
Tabbed By:Mike,hawker489@aol.com
Standard Tuning(e,B,G,D,A,E)
*=palm mute
~=let ring

Intro
e--------------------------------------------------------x2
B--------------------------------------------------------
G--------------------------------------------------------
D--------------------------------------------------------
A-0-0-0-0-7-0-0-5-0-0-4-0-0-0-0-0-0-0-7-0-0-5-0-0-4-7-4--
E--------------------------------------------------------

play twice then:

e-------------------x1
B-------------------
G-------------------
D-7777777777777777--
A-7777777777777777--
E-5555555555555555--
  ****************

Verse
e---------------------------------------x2
B---------------------------------------
G-------------------7-777777--9-999999--
D-7-77777777777777--7-777777--9-999999--
A-7-77777777777777--5-555555--7-777777--
E-5-55555555555555----------------------
    **************    ******    ******

(Intro)

Hold Note
e----------------x1
B----------------
G----------------
D-7~~~~~~~~~~~~--
A-7~~~~~~~~~~~~--
E-5~~~~~~~~~~~~--

Chorus
e--------------------x3
B--------------------
G---------------7-7--
D-7-7-7-**-4-**-7-7--
A-7-7-7-**-4-**-5-5--
E-5-5-5-**-2-**------

Riff(Part 1)
e--------------------x2
B--------------------
G-99999999-77777777--
D-99999999-77777777--
A-77777777-55555555--
E--------------------
  ******** ********

play twice then:

Part 2
e------------------x1
B------------------
G-77-7--77-7-------
D-77-7--77-7--9-7--
A-55-5--55-5--9-7--
E-------------7-5--
  **    **

(Intro)x2
(Verse)x2
(Chorus)x3        P1  P2
(Riff)(Both Parts)x2, x1

Interlude(this is the right Interlude)
e-----------------------------------
B-2---2-2-2---2-3-2---2-3-0---0-3---
G--2---2-3-2---2-2-2---2-2-1---1-1--
D---4-------0-------2-------2-------
A-----------------------------------
E-----------------------------------

(Chorus)x3        P1  P2
(Riff)(Both Parts)x2, x1
(Intro)Play until end

I've been working on this song for a long time and I'm 
pretty sure this is 100% correct. Any corrections E-Mail me.
comments
print report bad tab
6 comments total. Showing first comments.
0 reply
r0ckin_t0_hell wrote on August 18 2005, 12:00 am

great tab part frm da intro nice work

0 reply
sumguy67 wrote on October 10 2005, 02:27 pm

great tab dude

0 reply
Teh Traineez0rz wrote on November 26 2005, 01:21 am

This tab isn't accurate, the verse has palm muting and the intro is wrong.

I want to post or [tab]
guest
You may want to rate the tab now too:
select rating
Please do not post tabs as comments. Select "correction" instead!