Oops, an error
Loading. Please wait.

Roller Coaster Tab

version 3
version 3
467 views 1 this week
2 commentsread comments
1 2 3 4 5
please rate
add to favorites
launch autoscroll
font size
0
reset
how to read this tab
guitar tuner
Tab Pro tools
  • play this tab
  • loop segment
  • change instrument
  • show fretboard
  • metronome
×
Best way to learn
"Roller Coaster"
Autoscroll
slow
fast
+/-
esc
set tempo
stop
blink 182,roller coaster .
 Tabbed by -kyle,clownaround125@aol.com .
  
TITLE-roller coaster
ARTIST-blink 182
TABBED BY-kyle orlando


                      intro

[]---------------------------------------------------
[]---------------------------------------------------
[]---6---6--7--6-------6----6--7--6------------------
[]-----7----------7-7-----7----------7-7-------------
[]---------------------------------------------------
[]---------------------------------------------------


                      pre verse

[]--------------------------------------------------
[]--------------------------------------------------
[]--------------------------------------------------
[]--------------------------------------------------
[]-----5---0---5---6---5---5---0---5---6---5--------
[]--------------------------------------------------

                      verse

[]----------------------------------------------------
[]----------------------------------------------------
[]-7-7-7-7-7-7-7-9-9-9-9-9-9-9------------------------
[]-7-7-7-7-7-7-7-9-9-9-9-9-9-9--7-7-7-7-7-7-7---------
[]-5-5-5-5-5-5-5-7-7-7-7-7-7-7--7-7-7-7-7-7-7---------
[]------------------------------5-5-5-5-5-5-5---------
 
                  chorus

[]----------------------------------------------------
[]----------------------------------------------------
[]----------6-6-6-6-6-6-6-8-8-8-8-8-8-----------------
[]-9--9-9-9-6-6-6-6-6-6-6-8-8-8-8-8-8-9-9-9-9-9-9-9---
[]-9--9-9-9-4-4-4-4-4-4-4-6-6-6-6-6-6-9-9-9-9-9-9-9---
[]-7--7-7-7---------------------------7-7-7-7-7-7-7---

                       guitar solo
        lots of synthesizing and bass
[]-------------------------------------------------
[]-------------------------------------------------
[]--7---2-2-2-2-2--4-4-4-4-4-----------------------
[]--7---2-2-2-2-2--4-4-4-4-4-----------------------
[]--5---0-0-0-0-0--0-0-0-0-0-----------------------
[]-------------------------------------------------

               ending chorus

[]---------------------------------------------------
[]---------------------------------------------------
[]-7-7-7-7-7-7-7-7-----4-4-4-4-4-4-4-4---------------
[]-7-7-7-7-7-7-7-7-----4-4-4-4-4-4-4-4---------------
[]-5-5-5-5-5-5-5-5-----0-0-0-0-0-0-0-0---------------
[]---------------------------------------------------
play 4 of those each                    


 
:: Ultimate Guitar Archive :: 
http://www.ultimate-guitar.com 



comments
We did not receive enough feedback on this tab! Please rate:
print report bad tab
1 2 3 4 5
2 comments total.
0 reply
Blink182#1fan wrote on January 28 2002, 12:00 am

you almost got it right

0 reply
BlackTide735 wrote on April 14 2009, 11:28 am

not all of it is correct

I want to post or [tab]
guest
You may want to rate the tab now too:
select rating
Please do not post tabs as comments. Select "correction" instead!