Oops, an error
Loading. Please wait.
We have an official Shes Out Of Her Mind tab made by UG professional guitarists. Check out the tab »
×

Shes Out Of Her Mind tab

version 1
version 1

Whole song

Interactive

Video

  • High quality, easy to follow video lesson.
30,271 views 162 this week
3 commentsread comments
1 2 3 4 5
x 25
add to favorites
×
Save as Personal and add changes to this tab that will be seen only by you. Learn more ›
×
You can save this tab as Personal to edit and correct it or add notes. All changes will be seen only by you. Learn more »
launch autoscroll
font size
0
reset
how to read this tab
guitar tuner
backing track
0:00
0:00
edit
Autoscroll
slow
fast
+/-
esc
set tempo
stop
Author
Difficulty
Artist: blink-182
Album: California
Song: She's Out of Her Mind

Tabbed by: Jalen Chin
Tuning: Standard


[Intro] x16

e|-------|
B|-----5-|
G|-5-5---|
D|-------| 
A|-------|
E|-------|


[Verse 1] x16

(I said settle down...)
e|-------|
B|-----5-|
G|-5-5---|
D|-------| 
A|-------|
E|-------|


[Pre-Chorus 1]

(She's anti-social...)
e|--------------------------------------|
B|--------------------------------------|
G|--------------------------------------|
D|-7-----5-----3------7-----5-----3-----|
A|-7-x8--5-x8--3-x16--7-x8--5-x8--3-x8--|
E|-5-----3-----1------5-----3-----1-----|
   *     *     *      *     


[Chorus 1] 

(I'm in deep...)
e|----------------------------------------------------------|
B|----------------------------------------------------------|
G|-5-5-5-5------------------------5-------------------------|
D|-5-5-5-5--5-----7-----3-3/5-5---5-x8--5-----7-----3-3/5-5-| 
A|-3-3-3-3--5-x8--7-x8--3-3/5-5---3-----5-x8--7-x8--3-3/5-5-|
E|----------3-----5-----1-1/3-3---------3-----5-----1-1/3-3-|

(She got a black shirt, black skirt...)
e|----------------------------------------|
B|----------------------------------------|
G|----------------------------------------|
D|-3-33--5-55--6-6-6-6-6-6-6-6--7-77-5-55-| 
A|-3-33--5-55--7-7-7-7-7-7-7-7--7-77-5-55-|
E|-1-11--3-33--4-4-4-4-4-4-4-4--5-55-3-33-|

(I'm in deep...)
e|---------------------------|
B|---------------------------|
G|-5-------------------------|
D|-5-x8--5-----7-----3-3/5-5-| 
A|-3-----5-x8--7-x8--3-3/5-5-|
E|-------3-----5-----1-1/3-3-|


[Break]

(Oh yeah...)
e|----------------------------------------------------|
B|----------------------------------------------------|
G|-5-----------------------5--------------------------|
D|-5-x8--5-----3-----/5-5--5-x8--5-----3-----/7-7-5-5-|
A|-3-----5-x8--3-x16-/5-5--3-----5-x8--3-x8--/7-7-5-5-|
E|-------3-----1-----/3-3--------3-----1-----/5-5-3-3-|


[Verse 2] 

(She said I let her down...)

Guitar 1: Palm muted
e|------------------------|
B|------------------------|
G|-5----------------------|
D|-5-x8--5-----7-----5----| x2
A|-3-----5-x8--7-x8--5-x8-|
E|-------3-----5-----3----|
   *     *     *     *

Guitar 2:
e|--------------------------------------------------------|
B|-----5------5------8------8------5------5------3------3-|
G|-5-5----5-5----5-5----5-5----5-5----5-5----5-5----5-5---|
D|--------------------------------------------------------| x2
A|--------------------------------------------------------|
E|--------------------------------------------------------|


[Pre-Chorus 2] 

(She's anti-social...)

Guitar 1:
e|--------------------------------------|
B|--------------------------------------|
G|--------------------------------------|
D|-7-----5-----3------7-----5-----3-----| x1
A|-7-x8--5-x8--3-x16--7-x8--5-x8--3-x8--|
E|-5-----3-----1------5-----3-----1-----|
   *     *     *      *     

Guitar 2:
e|-15-15-15-13-13-13-12-12-12----------12-12-13-13-|
B|----------------------------15-15-15-------------|
G|-------------------------------------------------| x4
D|-------------------------------------------------|
A|-------------------------------------------------|
E|-------------------------------------------------|


[Chorus 2]

(I'm in deep...)
e|----------------------------------------------------------|
B|----------------------------------------------------------|
G|-5-5-5-5------------------------5-------------------------|
D|-5-5-5-5--5-----7-----3-3/5-5---5-x8--5-----7-----3-3/5-5-| 
A|-3-3-3-3--5-x8--7-x8--3-3/5-5---3-----5-x8--7-x8--3-3/5-5-|
E|----------3-----5-----1-1/3-3---------3-----5-----1-1/3-3-|

(She got a black shirt, black skirt...)
e|----------------------------------------|
B|----------------------------------------|
G|----------------------------------------|
D|-3-33--5-55--6-6-6-6-6-6-6-6--7-77-5-55-| 
A|-3-33--5-55--7-7-7-7-7-7-7-7--7-77-5-55-|
E|-1-11--3-33--4-4-4-4-4-4-4-4--5-55-3-33-|

(I'm in deep...)
e|---------------------------|
B|---------------------------|
G|-5-------------------------|
D|-5-x8--5-----7-----3-3/5-5-| 
A|-3-----5-x8--7-x8--3-3/5-5-|
E|-------3-----5-----1-1/3-3-|


[Bridge]

(Overstated at all...)

Guitar 1:
e|-------------------------------------------|
B|-------------------------------------------|
G|-5------------------5----------------------|
D|-5-----5-----3------5-----5-----3----/5----| x1
A|-3-x8--5-x8--3-x16--3-x8--5-x8--3-x8-/5-x8-|
E|-------3-----1------------3-----1----/3----|
   *     *     *      *     *     *     *

Guitar 2:
e|-----------------|
B|-8~--8~--6~---6~-|
G|-----------------| x2
D|-----------------|
A|-----------------|
E|-----------------|


[Chorus 3]

(I'm in deep...)
e|--------xx--------------------------------------------|
B|--------xx--------------------------------------------|
G|-5-5-5--xx------------------5-------------------------|
D|-5-5-5--xx--7-----3-3/5-5---5-x8--5-----7-----3-3/5-5-|  
A|-3-3-3--xx--7-x8--3-3/5-5---3-----5-x8--7-x8--3-3/5-5-|
E|--------xx--5-----1-1/3-3---------3-----5-----1-1/3-3-|

(She got a black shirt, black skirt...)
e|---------------------------------------|
B|---------------------------------------|
G|---------------------------------------|
D|-3----/5----6-6-6-6-6-6-6-6--7-77-5-55-| 
A|-3-x8-/5-x8-7-7-7-7-7-7-7-7--7-77-5-55-|
E|-1----/3----4-4-4-4-4-4-4-4--5-55-3-33-|

(I'm in deep...)
e|---------------------------|
B|---------------------------|
G|-5-------------------------|
D|-5-x8--5-----7-----3-3/5-5-| 
A|-3-----5-x8--7-x8--3-3/5-5-|
E|-------3-----5-----1-1/3-3-|


[Outro]

(Oh yeah...)

Guitar 1:
e|-------------------------------------------------------|
B|-------------------------------------------------------|
G|-5-----------------------5---------------------------5-|
D|-5-x8--5-----3-----/5-5--5-x8--5-----3-----/7-7-5-5--5-| 
A|-3-----5-x8--3-x16-/5-5--3-----5-x8--3-x8--/7-7-5-5--3-|
E|-------3-----1-----/3-3--------3-----1-----/5-5-3-3----|

Guitar 2:
e|-8-8-8-----------------------------8-8-8---------------------------|
B|-------8-8-8-6-6-6-5-5-5-----5-5---------8-8-8-6-6-6-5-5-5---------|
G|-------------------------7-7-------------------------------7-7-5-5-|
D|-------------------------------------------------------------------|
A|-------------------------------------------------------------------|
E|-------------------------------------------------------------------|

e|-8-8-8-----------------------------8-8-8-----------|
B|-------8-8-8-6-6-6-5-5-5-----5-5---------8-8-8-6-6-|
G|-------------------------7-7-----------------------|
D|---------------------------------------------------|
A|---------------------------------------------------|
E|---------------------------------------------------|

******************************************************
| / = slide up
| x = mute string
| * = palm mute
| ~ = Ring out
******************************************************

            
            
Suggest correction
Creating personal tab
Creating personal tab
You can edit any tab online and save it as your Personal.

You can edit, replace or remove any tab part or add personal notes – all changes will be seen only by you.

Personal tabs can be accessed anytime from any device, even offline.
Learn more »
comments
print report bad tab
3 comments total. show 1 bad comment
+3 reply
JalenChin 424 Jul 04, 2016 02:55 PM

Hey, thanks for the your input! I agree with you on the bridge correction, but I still think there is an A476 in the chorus.

0 reply
okyok 10 Jul 21, 2016 09:25 PM

hello, great tab

guest
You may want to rate the tab now too:
select rating
Wanna post a correction for this tab? Suggest correction