Oops, an error
Loading. Please wait.

Shut Up Bass Tab

version 1
version 1

Whole song

Interactive

6,918 views 9 this week
1 commentread comment
1 2 3 4 5
x 7
add to favorites
launch autoscroll
font size
0
reset
guitar tuner
×
Best way to learn
"Shut Up"
Autoscroll
slow
fast
+/-
esc
set tempo
stop
Artist: Blink-182 
Song: Shut Up 
Album: Take Off Your Pants And Jacket 
Tabbed by: Brian Slocum, psychosatan666@yahoo.com 

Intro/Verse 
G: -------------------------------: 
D: -------------------------------: 
A: 0-0-0-0-0-0-0-0-4-4-4-4-5-5-5-5: 
E: -------------------------------: 

Chorus 

"I’ll never ask permission..." 
play 2x 
G: ------------------:  
D: ------------------: 
A: 5-5-5-5----0-0-0-0: 
E: ------------------: 

"I’m not coming home..." 
play 2x 
G: ------------------------------: 
D: ---------------0-0-0-0-0-0-0-0: 
A: 2-2-2-2-2-2-2-2---------------: 
E: ------------------------------: 

Bridge 

G: -------------------------------: 
D: -------------------------------: 
A: 2-2-2-2-2-2-2-2-4-4-4-4-5-5-5-5: 
E: -------------------------------: 

Order: 
1 measure rest 
Intro/Verse x8 
2 measures rest 
Intro/Verse x6 
Chorus 
Intro/Verse x4 
Chorus 
Bridge x6 
Intro/Verse x4 
Chorus 
Intro/Verse x4 
End on A:-0-: 
Suggest correction
comments
print report bad tab
1 comment total.
0 reply
catchy phrase 92 Nov 12, 2007 03:08 PM

Bridge is wrong.

G|-----------------------
D|---2----2----2----2----
A|-22-2-22-2-44-4-00-0---
E|-----------------------

guest
You may want to rate the tab now too:
select rating
Wanna post a correction for this tab? Suggest correction