Oops, an error
Loading. Please wait.

Shut Up intro tab

version 2
550 views 1 this week
3 commentsread comments
1 2 3 4 5
1 last vote to show rating
add to favorites
×
Save as Personal and add changes to this tab that will be seen only by you. Learn more ›
×
You can save this tab as Personal to edit and correct it or add notes. All changes will be seen only by you. Learn more »
launch autoscroll
font size
0
reset
how to read this tab
guitar tuner
edit
Autoscroll
slow
fast
+/-
esc
set tempo
stop
Author
tuning standard 

E--5-5-5-5-5-5-5-5------------------------------------------
B--X-X-X-X-X-X-X-X------------------------------------------
G--2-2-2-2-2-2-2-2------------------------------------------
D-----------------------------------------------------------
A-----------------------------------------------------------
E-----------------------------------------------------------

E-----------------------------------------------------------
B----5----5-----5-----5-------------------------------------
G--2---2-2--2--2--2--2-2------------------------------------
D-------------------0---------------------------------------
A-0-----0-----4---------------------------------------------
E-----------------------------------------------------------
let ring

thats it its easy jus listen to the song and get the timing down

            
            
Suggest correction
Creating personal tab
Creating personal tab
You can edit any tab online and save it as your Personal.

You can edit, replace or remove any tab part or add personal notes – all changes will be seen only by you.

Personal tabs can be accessed anytime from any device, even offline.
Learn more »
Give kudos to tab author, rate the tab!
1 2 3 4 5
comments
print report bad tab
3 comments total.
0 reply
bids182 0 Feb 10, 2002 07:00 PM

Scabby Bastard....it's exactly the same as mine!

0 reply
skaterpim9 145 Mar 06, 2002 07:00 PM

fuck u i tabbed it from the book asshole

0 reply
Greg_2390 10 Apr 09, 2007 04:29 PM

e-----------------|---------------------------------
B-----------------|----5--------5-------5-------5---
G-2-2-2-2-2-2-2-2-|--2---2----2---2---2---2---2---2-
D-----------------|---------------------------------
A-----------------|-0---------------4-------5-------
E-----------------|---------------------------------

Is the Right Way.

the book is wrong. Its not tom who writes the books its random guys who get paid to tab music. There incorrect about many blink songs.

guest
You may want to rate the tab now too:
select rating
Wanna post a correction for this tab? Suggest correction