Oops, an error
Loading. Please wait.

Snake Charmer bass

version 1
version 1

Whole song

Interactive

5,395 views 6 this week
2 commentsread comments
1 2 3 4 5
x 5
add to favorites
×
Save as Personal and add changes to this tab that will be seen only by you. Learn more ›
×
You can save this tab as Personal to edit and correct it or add notes. All changes will be seen only by you. Learn more »
launch autoscroll
font size
0
reset
guitar tuner
edit
Autoscroll
slow
fast
+/-
esc
set tempo
stop
Author
-------------------------------------------------------------------------------
			     SNAKE CHARMER - Blink 182
-------------------------------------------------------------------------------

Tabbed By : Shaun Owens
e-mail: shaun.owens@my.jcu.edu.au

Tuning: Standard 


Intro: (0:05) (x3)

|------------------------------|
|------------------------------| 
|--0-0-0-0-2p0---0-0-0-0-4p0---| x3
|------------------------------|

|------------------------------|
|------------------------------| 
|--0-0-0-0-2p0---0-0-----------| x1
|--------------------0-0-0-0---|

Pre-Verse (0:33) (Heavier Riff)

Play either of the following, the both sound pretty good!

Option A: 
|----------------------------|
|----------------------------|
|-4-4p0----------------------| (play about 8 times) 
|-------5-5-5-5-5-5-5-4-4----|

Option B (This is what I play):
|----------------------------|
|----------------------------|
|-4-4------------------------| (play about 8 times) 
|-----5-5b-5-5-5-5-5-4-4-----|

Verse (No bass until 1:10 - Very end of the verse) 

|------------|
|------------|
|------------|
|-0-0-0-0-0--|


Chorus (1:12) 

|--------------------------------------|
|--------------------------------------|
|---------------------------5-5-5-5-5--| x2
|-5-5-5-5-4-4-4-4-2-2-2-2-2------------|

|------------------------------------------|
|------------------------------------------|
|---------11-11-11-11-9-9-9-9--5-5-5-5-5---| x1
|-5-5-5-5----------------------------------|

|--------------------------------------|
|--------------------------------------|
|---------------------------5-5-5-5-5--| x1
|-5-5-5-5-4-4-4-4-2-2-2-2-2------------|

Post Chorus (Play: Intro Riff) (1:33) 

|-------------------------------|
|-------------------------------| 
|---0-0-0-0-2p0---0-0-0-0-4p0---| x3
|-------------------------------|

|-------------------------------|
|-------------------------------| 
|---0-0-0-0-2p0---0-0-----------| x1
|---------------------0-0-0-0---|

Pre-Verse (1:40) (Heavier Riff)

Option A: 
|----------------------------|
|----------------------------|
|-4-4p0----------------------| (play about 8 times) 
|-------5-5-5-5-5-5-5-4-4----|

Option B (This is what I play):
|----------------------------|
|----------------------------|
|-4-4------------------------| (play about 8 times) 
|-----5-5b-5-5-5-5-5-4-4-----|



VERSE 2 (1:50) (Intro Riff x2) 

|-------------------------------|
|-------------------------------| 
|---0-0-0-0-2p0---0-0-0-0-4p0---| x3
|-------------------------------|

|-------------------------------|
|-------------------------------| 
|---0-0-0-0-2p0---0-0-----------| x1
|---------------------0-0-0-0---|

- Play Chorus (2:09) - 

Bridge (2:29)(This is a little bit hard to time, listen closely!) 

|---------------------------------------------------------------|
|---------------------------------------------------------------|
|-----------------------------------------------5-5-5-5-5-5-5-5-| x 2
|-5-5-5-5-5-5-5-5-5-5-5-5-5-4-4-4-4-2-2-2-2-2-2-----------------|

|---------------------------------------------------------------|
|---------------------------------------------------------------|
|-----------------------------------------------5-5-5-5-7-7-7-7-| x 1
|-5-5-5-5-5-5-5-5-5-5-5-5-5-4-4-4-4-2-2-2-2-2-2-----------------|

- Play Chorus (2:58) -

            
            
Suggest correction
Creating personal tab
Creating personal tab
You can edit any tab online and save it as your Personal.

You can edit, replace or remove any tab part or add personal notes – all changes will be seen only by you.

Personal tabs can be accessed anytime from any device, even offline.
Learn more »
comments
print report bad tab
2 comments total.
0 reply
zjcl1 114 Feb 13, 2012 12:07 PM

i didn't kno you made this tab to. i played this one and its awesome, i think i was having trouble with the bridge, can't remember if its this song or This is home.

guest
You may want to rate the tab now too:
select rating
Wanna post a correction for this tab? Suggest correction