Oops, an error
Loading. Please wait.
We have an official Sober tab made by UG professional guitarists. Check out the tab »
×

Sober bass

version 1
version 1

Whole song

  • I tabbed this from the studio recorded version (ht... Show more

Interactive

979 views 6 this week
2 commentsread comments
1 2 3 4 5
x 4
add to favorites
×
Save as Personal and add changes to this tab that will be seen only by you. Learn more ›
×
You can save this tab as Personal to edit and correct it or add notes. All changes will be seen only by you. Learn more »
launch autoscroll
font size
0
reset
guitar tuner
edit
Autoscroll
slow
fast
+/-
esc
set tempo
stop
About this tab version
I tabbed this from the studio recorded version (https://www.youtube.com/watch?v=Fof6vYITQ3w). I heard the song carefuly and I think it is correct, don't forget to listen to the song to get the rythm. Was this info helpful? Yes No
[Intro]
G|-----------------------------------------------------|
D|-----------------------------------------------------|   (x2)
A|---3-3-3-3-3-3-------------7-7-7-7-7-7-5-5-5-5-5-5---| 
E|---------------3-3-3-3-3-3---------------------------|

[Verse]
G|------------------------------------|
D|-------5--------12------9------7----|   (x2)
A|---3-3----10-10-----7-7----5-5------|
E|------------------------------------|

G|------------------------------------------------------------------------------|
D|------------------------------------------------------------------------------|
A|---3-3-3-3-3-3-3-3-10-10-10-10-10-10-10-10-7-7-7-7-7-7-7-7-5-5-5-5-5-5-5-5----|   (x2)
E|------------------------------------------------------------------------------|

[Chorus]
G|-----------------------------------------------------------------|
D|-----------------------------------------------------------------|
A|---3-3-3-3-3-3-3---------------7-7-7-7-7-7-7-5-5-5-5-5-5-5-------|   (x2)
E|-----------------3-3-3-3-3-3-3-----------------------------------|

[Verse]
G|-------------------------------------|
D|-------5--------12------9------7-----|   (x2)
A|---3-3----10-10-----7-7----5-5-------|
E|-------------------------------------|

G|---------------------------------------------------------------------------|
D|---------------------------------------------------------------------------|
A|-------3-3-3-3-10-10-10-10-10-10-10-10-7-7-7-7-7-7-7-7-5-5-5-5-5-5-5-5-----|   
E|---------------------------------------------------------------------------|

G|-----------------------------------------------------------------------------| |---|
D|-----------------------------------------------------------------------------| |---|
A|---3-3-3-3-3-3-3-3-10-10-10-10-10-10-10-10-7-7-7-7-7-7-7-7-5-5-5-5-5-5-5-5---| |-5~|   
E|-----------------------------------------------------------------------------| |---|

[Outro]
G|------------------------------------------------------|
D|------------------------------------------------------|   (x3)
A|---3-3-3-3-3-3-------------7-7-7-7-7-7-5-5-5-5-5-5----| 
E|---------------3-3-3-3-3-3----------------------------|

G|---|
D|---|
A|-3~|
E|---|

************************************

| ~   Vibrato

************************************

            
            
Suggest correction
Creating personal tab
Creating personal tab
You can edit any tab online and save it as your Personal.

You can edit, replace or remove any tab part or add personal notes – all changes will be seen only by you.

Personal tabs can be accessed anytime from any device, even offline.
Learn more »
comments
print report bad tab
2 comments total.
+1 reply
triama451 10 Jul 21, 2017 10:39 AM

it's great

guest
You may want to rate the tab now too:
select rating
Wanna post a correction for this tab? Suggest correction