Oops, an error
Loading. Please wait.

Sometimes bass

version 2
version 2

Whole song

Interactive

211 views 1 this week
1 commentread comment
1 2 3 4 5
x 3
add to favorites
×
Save as Personal and add changes to this tab that will be seen only by you. Learn more ›
×
You can save this tab as Personal to edit and correct it or add notes. All changes will be seen only by you. Learn more »
launch autoscroll
font size
0
reset
guitar tuner
edit
Autoscroll
slow
fast
+/-
esc
set tempo
stop
Author
-------------------------------------------------------------------------------
                             Sometimes - Blink 182
-------------------------------------------------------------------------------
Tabbed by: Arman Kobzhassarov
E-mail: armanvl10@yahoo.com

Theis one is 100% correct. Try it and write me to e-mail or comment it below.


Verse [10x]:
G|--------------------------------|
D|--------------------------------|
A|--777--333—10-10-10--555--------|
E|--------------------------------|

Chorus [2x]:
G|---------------------------------------------|
D|---------------------------------------------|
A|--33333--10-10-10-10-10--77777--33333--------|
E|---------------------------------------------|

Verse [8x]:
G|--------------------------------|
D|--------------------------------|
A|--777--333—10-10-10--555--------|
E|--------------------------------|

Chorus [2x]:
G|---------------------------------------------|
D|---------------------------------------------|
A|--33333--10-10-10-10-10--77777--33333--------|
E|---------------------------------------------|

Verse [1x]:
G|--------------------------------|
D|--------------------------------|
A|--777--333—10-10-10--555--------|
E|--------------------------------|

Verse [1x]:
G|--------------------------------|
D|--------------------------------|
A|--777--333—10-10-10—5-----------|
E|--------------------------------|

            
            
Suggest correction
Creating personal tab
Creating personal tab
You can edit any tab online and save it as your Personal.

You can edit, replace or remove any tab part or add personal notes – all changes will be seen only by you.

Personal tabs can be accessed anytime from any device, even offline.
Learn more »
Give kudos to tab author, rate the tab!
1 2 3 4 5
comments
print report bad tab
1 comment total.
0 reply
Strobber 150 Oct 02, 2016 05:54 AM

This one is 100% correct, good job man

guest
You may want to rate the tab now too:
select rating
Wanna post a correction for this tab? Suggest correction