Oops, an error
Loading. Please wait.
We have an official Stay Together For The Kids tab made by UG professional guitarists. Check out the tab »
×

Stay Together For The Kids tab

163,756 views 51 this week
204 commentsread comments
1 2 3 4 5
x 233
add to favorites
×
Save as Personal and add changes to this tab that will be seen only by you. Learn more ›
×
You can save this tab as Personal to edit and correct it or add notes. All changes will be seen only by you. Learn more »
launch autoscroll
font size
0
reset
how to read this tab
guitar tuner
edit
Autoscroll
slow
fast
+/-
esc
set tempo
stop
Author
Unregistered
Author/Artist: Blink 182
Title: Stay Together For The Kids
Album: Take off your pants and jacket
Transcribed by: Colin Kemege
Email: socksandspoons@hotmail.com

I'm pretty sure the Main Riff is Right as well as the Chorus....I can't figure out 
completly what the
Verse + Bridge/Solo are so email me if you know.
Also, you can download this song offa:
http://www.wmaland.f2s.com/


[Main Riff]

e|----------------------------------------------------------------------------|
B|----------------------------------------------------------------------------|
G|----------------------------------------------------------------------------|
D|---0----7-0-4-0----0----7-0-4-0-----0-----4-0-5-0----0----4-5-4-2-0---------|
A|-5---5----------4----4------------2---2------------0---0--------------------|
E|----------------------------------------------------------------------------|


[Chorus]

e|-------------------------------------------------------------------------------------------------------|
B|-------------------------------------------------------------------------------------------------------|
G|-7-7-7-7-7-7-7-7-7-7-7-7-7-7-7-7----6-6-6-6-6-6-6-6-6-6-6-6-6-6-6-6------------------------------------|
D|-7-7-7-7-7-7-7-7-7-7-7-7-7-7-7-7----6-6-6-6-6-6-6-6-6-6-6-6-6-6-6-6------------------------------------| x4
A|-5-5-5-5-5-5-5-5-5-5-5-5-5-5-5-5----4-4-4-4-4-4-4-4-4-4-4-4-4-4-4-4------------------------------------|
E|-------------------------------------------------------------------------------------------------------|


[End the Chorus]

e|---|
B|---|
G|-7-|
D|-7-|
A|-5-|
E|---| 

            
            
Suggest correction
Creating personal tab
Creating personal tab
You can edit any tab online and save it as your Personal.

You can edit, replace or remove any tab part or add personal notes – all changes will be seen only by you.

Personal tabs can be accessed anytime from any device, even offline.
Learn more »
comments
print report bad tab
204 comments total. Showing first comments.
0 reply
chkitabah 0 Nov 18, 2001 07:00 PM

this sux it the beginning sounds right but you dont even have the verse and the chorus is totally wrong

0 reply
alexbrot 272 Nov 22, 2001 07:00 PM

the chorus chords are E and G.

0 reply
sheeppig 110 Nov 26, 2001 07:00 PM

CHORUS IS G AND F#

guest
Wanna post a correction for this tab? Suggest correction