Oops, an error
Loading. Please wait.

Stay Together For The Kids Bass Tab

version 4
version 4
6,129 views 54 this week
no commentswrite comment
1 2 3 4 5
excellent!
x 10
add to favorites
launch autoscroll
font size
0
reset
guitar tuner
Tab Pro tools
  • play this tab
  • loop segment
  • change instrument
  • show fretboard
  • metronome
×
Best way to learn
"Stay Together For The Kids"
Autoscroll
slow
fast
+/-
esc
set tempo
stop
Contributor
Difficulty
novice
----------------------------------------------------------------------------
                      Stay Together For The Kids - Blink 182
----------------------------------------------------------------------------
Tabbed by: Jim-BlenderBR
 - Please rate and send me your feedback - 

Intro/Verse 1

G|-------------|
D|-------------|
A|- No Bass ---|
E|-------------|

Chorus
(So here's your holiday...)

G|-------------------------------------|
D|-------------------------------------|
A|-------------------------------------|
E|--3333333333333333-2222222222222202--| x4

Verse 2
(Their anger hurts my ears...)

G|----7----7-----7----7-----7----7-----99--9---|
D|--00-0--0-0--99-9--9-9--77-7--7-7--77---7-7--|
A|---------------------------------------------|
E|---------------------------------------------| x2

Chorus
(So here's your holiday...)

G|-------------------------------------|
D|-------------------------------------|
A|-------------------------------------|
E|--3333333333333333-2222222222222202--| x4

Bridge

G|----7--7-7---7--7-7---7--7-7---7--7-7--|
D|--00-00-0--77-77-7--55-55-5--77-77-7---|
A|---------------------------------------|
E|---------------------------------------| x4

Instrumental

G|-------------------------------------|
D|-------------------------------------|
A|-------------------------------------|
E|--3333333333333333-2222222222222202--| x2

Chorus
(So here's your holiday...)

G|-------------------------------------|
D|-------------------------------------|
A|-------------------------------------| Play until the
E|--3333333333333333-2222222222222202--|      end...
comments
print report bad tab
I want to post or [tab]
guest
You may want to rate the tab now too:
select rating
Please do not post tabs as comments. Select "correction" instead!