Oops, an error
Loading. Please wait.
We have an official Stay Together For The Kids tab made by UG professional guitarists. Check out the tab »
×
3,036 views 1 this week
2 commentsread comments
1 2 3 4 5
x 7
add to favorites
guitar tuner
Autoscroll
slow
fast
+/-
esc
set tempo
stop
File Format
Filesize
Instruments
.gp3
31 Kb
basses, percussions, vocals #2, keyboards
"Stay Together For The Kids"
demo version
Play now

or get full version for Free

×
Get full version now!
Learn and play this song
in Tab Pro
Try for free

or get $10 off Welcome Bonus

Get welcome bonus
Get access to Tab Pro version of “Stay Together For The Kids”!
Tab Pro is a premium guitar tab service, available on PC, Mac, iOS and Android
TRY FOR FREE
Your download will start in 7 seconds
×
Like this song? We have more! Follow us on Facebook for daily tips, lessons and other guitar-related content.
To download “Stay Together For The Kids” Guitar Pro tab click button below
Please note that you must have Guitar Pro software installed on your
computer in order to view this file.
Suggest correction
comments
report bad tab
2 comments total.
0 reply
delesdog 82 Jan 24, 2006 03:56 PM

Good tab...another screwed up intro though...
Tab has something like this:
e|-------------------|------------------|
B|-------------------|------------------|
G|-------------------|------------------|
D|----0---7--0---4-0-|----0---5-0---4-0-|
A|--5---5------5-----|--4---4-----4-----|
E|-------------------|------------------|

Should be this:
e|-------------------|------------------|
B|-------------------|------------------|
G|-------------------|------------------|
D|----0---7--0---4-0-|----0---7-0---4-0-|
A|--5---5------5-----|--4---4-----4-----|
E|-------------------|------------------|

It clearly plays the '7'...can't believe so many people butchered the intro to this tab...amazes me.

0 reply
Blink90Bedford 10 Jan 25, 2006 05:27 AM

well sed

guest