Oops, an error
Loading. Please wait.
We have an official Stay Together For The Kids tab made by UG professional guitarists. Check out the tab »
×

Stay Together For The Kids chords

1,520 views 3 this week
1 commentread comment
1 2 3 4 5
x 6
add to favorites
×
Save as Personal and add changes to this tab that will be seen only by you. Learn more ›
×
You can save this tab as Personal to edit and correct it or add notes. All changes will be seen only by you. Learn more »
launch autoscroll
font size
0
reset
transpose
0
reset
simplify chords
display chords
guitar tuner
edit
Autoscroll
slow
fast
+/-
esc
set tempo
stop
Author
Strumming
There is no strumming pattern for this song yet. and get +5 IQ
Tabbed by: JimBlenderBR




- Enjoy!




Intro :


          D               A/C#              Bm               A
E|-----------------|-----------------|-----------------|-----------------|
B|-----------------|-----------------|-----------------|-----------------|
G|-----------------|-----------------|-----------------|-----------------|  x2
D|---0---7-0---4-0-|---0---7-0---4-0-|---0---4-0---5-0-|---2---4-5-4-2-0-|
A|-5---5-----5-----|-4---4-----4-----|-2---2-----2-----|-0---0-----------|
E|-----------------|-----------------|-----------------|-----------------|



- Verse 1:

D
It's hard to wake up
Bm
When the shades have been pulled shut
A
This house is haunted, it's so pathetic, it makes no sense at all
D
I'm ripe with things to say
Bm
The words rot and fall away
A
If a stupid poem could fix this home I'd read it every day




- Chorus:

G                  F#m              G                                 F#m
So here's your holiday, hope you enjoy it this time, you gave it all away
         G                             F#m
It was mine, so when you're dead and gone
         G                                     F#m
Will you remember this night, Twenty years now lost? It's not right




- Post-Chorus : 


          D               A/C#              Bm               A
E|-----------------|-----------------|-----------------|-----------------|
B|-----------------|-----------------|-----------------|-----------------|
G|-----------------|-----------------|-----------------|-----------------|  x2
D|---0---7-0---4-0-|---0---7-0---4-0-|---0---4-0---5-0-|---2---4-5-4-2-0-|
A|-5---5-----5-----|-4---4-----4-----|-2---2-----2-----|-0---0-----------|
E|-----------------|-----------------|-----------------|-----------------|




- Verse 2:

D                      
Their anger hurts my ears
Bm                              
Been running strong for seven years
A
Rather than fix the problems, they never solve them, it makes no sense at all
D
I see them every day          
Bm                
We get along so why can't they?
A
If this is what he wants, and it's what she wants, then why's there so much pain?




- Chorus:

G                  F#m              G                                 F#m
So here's your holiday, hope you enjoy it this time, you gave it all away
         G                             F#m
It was mine, so when you're dead and gone
         G                                     F#m
Will you remember this night, Twenty years now lost? It's not right




- Interlude: D A G A  x4




- Instrumental: G F#m x2




- Chorus:

G                  F#m              G                                 F#m
So here's your holiday, hope you enjoy it this time, you gave it all away
         G                             F#m
It was mine, so when you're dead and gone
         G                                     F#m
Will you remember this night, Twenty years now lost? It's not right


               F#m
It's not right
           G
It's not right
             F#m
It's not right



Ending: G F#m (until fade)



__________
Hope you liked!

Tabbed by: JimBlenderBR

            
            
Suggest correction
Creating personal tab
Creating personal tab
You can edit any tab online and save it as your Personal.

You can edit, replace or remove any tab part or add personal notes – all changes will be seen only by you.

Personal tabs can be accessed anytime from any device, even offline.
Learn more »
comments
print report bad tab
1 comment total.
0 reply
brooks51661 10 Sep 14, 2017 08:56 PM

Print

guest
You may want to rate the tab now too:
select rating
Wanna post a correction for this tab? Suggest correction