Oops, an error
Loading. Please wait.
We have an official Teenage Satellites tab made by UG professional guitarists. Check out the tab »
×

Teenage Satellites tab

version 1
version 1

Whole song

  • First tab of this song. Almost 100% correct. Standard tunning.

Interactive

2,920 views 24 this week
no commentswrite comment
1 2 3 4 5
x 6
add to favorites
×
Save as Personal and add changes to this tab that will be seen only by you. Learn more ›
×
You can save this tab as Personal to edit and correct it or add notes. All changes will be seen only by you. Learn more »
launch autoscroll
font size
0
reset
how to read this tab
guitar tuner
edit
Autoscroll
slow
fast
+/-
esc
set tempo
stop
Author
Difficulty
About this tab version
First tab of this song. Almost 100% correct. Standard tunning. Was this info helpful? Yes No
[Intro]

e|-----------------------------------------------------------|
B|-----------------------------------------------------------|
G|--7--7--7--7--7--7--7--7--777--7--7--7--7--7--7--7--7--777-|
D|-----------------------------------------------------------|
A|--5--5--5--5--5--5--5--5--555--5--5--5--5--5--5--5--5--555-|
E|-----------------------------------------------------------|



[Verse 1]

  "I can almost see a house frome here..."
  GUITAR 1
e|---------------------------------------------------------------------------------------
B|---------------------------------------------------------------------------------------
G|--7--7--7--7--7--7--7--7--777--7--7--7--7--7--7--7--7--12--12--12--12--12--12--12--12--
D|---------------------------------------------------------------------------------------
A|--5--5--5--5--5--5--5--5--555--5--5--5--5--5--5--5--5--10--10--10--10--10--10--10--10--
E|---------------------------------------------------------------------------------------

e|--------------------------|
B|--------------------------|
G|--9--9--9--9--9--9--9--9--|       x2
D|--------------------------|
A|--7--7--7--7--7--7--7--7--|
E|--------------------------|


  GUITAR 2 CAN DO THIS AS SOON AS THEY FINISH SINGING "Then you hit me like a Friday night"
e|----5-----|
B|------7---|
G|--7-------|       
D|----------|
A|----------|
E|----------|


[Chorus]
   GUITAR 1
  "Let's runaway let's go and waste another year..."
e|----------------------------------------------------------------
B|----------------------------------------------------------------
G|--7-7-7-7-7-7-7-7-7-7-7-7-7-7-7-7-------------------------------
D|--7-7-7-7-7-7-7-7-7-7-7-7-7-7-7-7-5-5-5-5-5-5-5-5-7-7-7-7-7-7-7-     x2
A|--5-5-5-5-5-5-5-5-5-5-5-5-5-5-5-5-5-5-5-5-5-5-5-5-7-7-7-7-7-7-7-
E|----------------------------------3-3-3-3-3-3-3-3-5-5-5-5-5-5-5-

  "We tumble through the night..."
e|-------------------------------------|
B|-------------------------------------|
G|--4-4----4---------------------------|
D|--4-4----4-4-4----4-5-5-5-5-5-5-5-5--|
A|--2-2----2-4-4----4-5-5-5-5-5-5-5-5--|
E|-----------2-2----2-3-3-3-3-3-3-3-3--|

 "Oh oh oh oooh oooh..."
e|----------------------------------------------------------------|
B|----------------------------------------------------------------|
G|--7-7-7-7-7-7-7-7-7-7-7-7-7-7-7-7-------------------------------|
D|--7-7-7-7-7-7-7-7-7-7-7-7-7-7-7-7-5-5-5-5-5-5-5-5-7-7-7-7-7-7-7-|    x2
A|--5-5-5-5-5-5-5-5-5-5-5-5-5-5-5-5-5-5-5-5-5-5-5-5-7-7-7-7-7-7-7-|
E|----------------------------------3-3-3-3-3-3-3-3-5-5-5-5-5-5-5-|


  GUITAR 2:
  "Let's runaway let's go and waste another year..."
e|----------------------------------------------------------------------------------------|
B|----------------------------------------------------------------------------------------|
G|--11-11-11-9-11-11-11-9-11-11-9-9-7-7-14-14-12-12-12-12-12-12-12-12-11-11-11-11-9-9-9-9-|
D|----------------------------------------------------------------------------------------|   x2
A|---9--9--9-7--9--9--9-7--9--9-7-7-5-5-12-12-10-10-10-10-10-10-10-10--9--9--9--9-7-7-7-7-|
E|----------------------------------------------------------------------------------------|

  "We tumble through the night..."
B|---------------------------------------------------|
G|--11-11----11-11-11----11-12-12-12-12-12-12-12-12--|
D|---------------------------------------------------|
A|---9--9-----9--9--9-----9-10-10-10-10-10-10-10-10--|
E|---------------------------------------------------|


 "Oh oh oh oooh oooh..."
e|----------------------------------------------------------------------------------------|
B|----------------------------------------------------------------------------------------|
G|--11-11-11-9-11-11-11-9-11-11-9-9-7-7-14-14-12-12-12-12-12-12-12-12-11-11-11-11-9-9-9-9-|
D|----------------------------------------------------------------------------------------|   x2
A|---9--9--9-7--9--9--9-7--9--9-7-7-5-5-12-12-10-10-10-10-10-10-10-10--9--9--9--9-7-7-7-7-|
E|----------------------------------------------------------------------------------------|


[Pre-verse 2]
  GUITAR 1
e|-----------------------------------------------------------|
B|-----------------------------------------------------------|
G|--7--7--7--7--7--7--7--7--777--7--7--7--7--7--7--7--7--777-|
D|-----------------------------------------------------------|
A|--5--5--5--5--5--5--5--5--555--5--5--5--5--5--5--5--5--555-|
E|-----------------------------------------------------------|

[Verse 2]


 GUITAR 1
 No guitar until they finish: "...the longest summer's nights are numbered"

 << PICK SLIDE ON E STRING <<
 "Then you kissed me like a storm at sea"

e|--------------------------------------------------------------------------------------------------|
B|--------------------------------------------------------------------------------------------------|
G|--------------------------------------------------------------------------------------------------|
D|--9-9-9-9-9-9-9-9-9-9-9-9-9-9-9-9-7-7-7-7-7-7-7-7-7-7-7-7-7-7-7-7-5-5-5-5-5-5-5-5-5-5-5-5-5-5-5-5-|
A|--9-9-9-9-9-9-9-9-9-9-9-9-9-9-9-9-7-7-7-7-7-7-7-7-7-7-7-7-7-7-7-7-5-5-5-5-5-5-5-5-5-5-5-5-5-5-5-5-|
E|--7-7-7-7-7-7-7-7-7-7-7-7-7-7-7-7-5-5-5-5-5-5-5-5-5-5-5-5-5-5-5-5-3-3-3-3-3-3-3-3-3-3-3-3-3-3-3-3-|
            P.M                                P.M                             P.M  

  "...in the deep end."
e|---------------------------------------------|
B|---------------------------------------------|
G|-9--9--9--9--9-9-9-9-9-9-9-9-9-9-9-9-9-9-9-9-|
D|-9--9--9--9--9-9-9-9-9-9-9-9-9-9-9-9-9-9-9-9-|
A|-7--7--7--7--7-7-7-7-7-7-7-7-7-7-7-7-7-7-7-7-|
E|---------------------------------------------|
                  P.M and slowly release


GUITAR 2 CAN DO THIS AS SOON AS THEY FINISH SINGING "Then you kissed me like a storm at sea"
e|----5-----|
B|------7---|
G|--7-------|       
D|----------|
A|----------|
E|----------|       


[Chorus 2]
  GUITAR 1
  "Let's runaway let's go and waste another year..."
e|----------------------------------------------------------------
B|----------------------------------------------------------------
G|--7-7-7-7-7-7-7-7-7-7-7-7-7-7-7-7-------------------------------
D|--7-7-7-7-7-7-7-7-7-7-7-7-7-7-7-7-5-5-5-5-5-5-5-5-7-7-7-7-7-7-7-     x2
A|--5-5-5-5-5-5-5-5-5-5-5-5-5-5-5-5-5-5-5-5-5-5-5-5-7-7-7-7-7-7-7-
E|----------------------------------3-3-3-3-3-3-3-3-5-5-5-5-5-5-5-

  "We tumble through the night..."
e|-------------------------------------|
B|-------------------------------------|
G|--4-4----4---------------------------|
D|--4-4----4-4-4----4-5-5-5-5-5-5-5-5--|
A|--2-2----2-4-4----4-5-5-5-5-5-5-5-5--|
E|-----------2-2----2-3-3-3-3-3-3-3-3--|


 GUITAR 2:
  "Let's runaway let's go and waste another year..."
e|----------------------------------------------------------------------------------------|
B|----------------------------------------------------------------------------------------|
G|--11-11-11-9-11-11-11-9-11-11-9-9-7-7-14-14-12-12-12-12-12-12-12-12-11-11-11-11-9-9-9-9-|
D|----------------------------------------------------------------------------------------|   x2
A|---9--9--9-7--9--9--9-7--9--9-7-7-5-5-12-12-10-10-10-10-10-10-10-10--9--9--9--9-7-7-7-7-|
E|----------------------------------------------------------------------------------------|

  "We tumble through the night..."
B|---------------------------------------------------|
G|--11-11----11-11-11----11-12-12-12-12-12-12-12-12--|
D|---------------------------------------------------|
A|---9--9-----9--9--9-----9-10-10-10-10-10-10-10-10--|
E|---------------------------------------------------|


[Interlude]
  GUITAR 1: As soon as second chorus finish.
e|-----------------------------------------------------------------|
B|-----------------------------------------------------------------|
G|-----------------------------------------------------------------|
D|-9-9-9-9-9-9-9-9-9-9-9-9-9-9-9-9-5-5-5-5-5-5-5-5-7-7-7-7-7-7-7-7-|   x4
A|-----------------------------------------------------------------|
E|-----------------------------------------------------------------|
         P.M                            P.M             P.M   

e|-----------------------------------------------------------|
B|-----------------------------------------------------------|
G|--7--7--7--7--7--7--7--7--777--7--7--7--7--7--7--7--7--777-|
D|-----------------------------------------------------------|
A|--5--5--5--5--5--5--5--5--555--5--5--5--5--5--5--5--5--555-|
E|-----------------------------------------------------------|


  GUITAR 2:
  "We are a slow descent..."
e|-----------------------------------------------------------------------------------------|
B|-15-15-15-15-15-15-15-15-15-15-15-15-15-15-15-15-10-10-10-10-10-10-10-10-8-8-8-8-8-8-8-8-|
G|-----------------------------------------------------------------------------------------|
D|-----------------------------------------------------------------------------------------|
A|-----------------------------------------------------------------------------------------|
E|-----------------------------------------------------------------------------------------|
              TREMOLO                                      TREMOLO              TREMOLO

e|------------------------------------------------------------------------------------------------|
B|-15-15-15-15-15-15-15-15-15-15-15-15-15-15-15-15-10-10-10-10-10-10-10-10-14-14-14-14-14-14-14-14|
G|------------------------------------------------------------------------------------------------|
D|------------------------------------------------------------------------------------------------|  x2
A|------------------------------------------------------------------------------------------------|
E|------------------------------------------------------------------------------------------------|
              TREMOLO                                TREMOLO                       TREMOLO      


[Final chorus]
  GUITAR 1
  "Let's runaway let's go and waste another year..."
e|----------------------------------------------------------------
B|----------------------------------------------------------------
G|--7-7-7-7-7-7-7-7-7-7-7-7-7-7-7-7-------------------------------
D|--7-7-7-7-7-7-7-7-7-7-7-7-7-7-7-7-5-5-5-5-5-5-5-5-7-7-7-7-7-7-7-     x2
A|--5-5-5-5-5-5-5-5-5-5-5-5-5-5-5-5-5-5-5-5-5-5-5-5-7-7-7-7-7-7-7-
E|----------------------------------3-3-3-3-3-3-3-3-5-5-5-5-5-5-5-

  "We tumble through the night..."
e|--------------------------------------------------|
B|--------------------------------------------------|
G|--4-4-4-4-4-4-4-4---------------------------------|
D|--4-4-4-4-4-4-4-4-4-4-4-4-4-4-4-4-5-5-5-5-5-5-5-5-|
A|--2-2-2-2-2-2-2-2-4-4-4-4-4-4-4-4-5-5-5-5-5-5-5-5-|
E|------------------2-2-2-2-2-2-2-2-3-3-3-3-3-3-3-3-|

  "Oh oh oh oooh oooh..."
e|----------------------------------------------------------------|
B|----------------------------------------------------------------|
G|--7-7-7-7-7-7-7-7-7-7-7-7-7-7-7-7-------------------------------|
D|--7-7-7-7-7-7-7-7-7-7-7-7-7-7-7-7-5-5-5-5-5-5-5-5-7-7-7-7-7-7-7-|    x4
A|--5-5-5-5-5-5-5-5-5-5-5-5-5-5-5-5-5-5-5-5-5-5-5-5-7-7-7-7-7-7-7-|
E|----------------------------------3-3-3-3-3-3-3-3-5-5-5-5-5-5-5-|

 GUITAR 2:
  "Let's runaway let's go and waste another year...
e|----------------------------------------------------------------------------------------|
B|----------------------------------------------------------------------------------------|
G|--11-11-11-9-11-11-11-9-11-11-9-9-7-7-14-14-12-12-12-12-12-12-12-12-11-11-11-11-9-9-9-9-|
D|----------------------------------------------------------------------------------------|   x2
A|---9--9--9-7--9--9--9-7--9--9-7-7-5-5-12-12-10-10-10-10-10-10-10-10--9--9--9--9-7-7-7-7-|
E|----------------------------------------------------------------------------------------|

  "We tumble through the night..."
B|--------------------------------------------------------------------------|
G|--11-11-11-11-11-11-11-11-11-11-11-11-11-11-11-11-12-12-12-12-12-12-12-12-|
D|--------------------------------------------------------------------------|
A|---9--9--9--9--9--9--9--9--9--9--9--9--9--9--9--9-10-10-10-10-10-10-10-10-|
E|--------------------------------------------------------------------------|

  "Oh oh oh oooh oooh..."
e|----------------------------------------------------------------------------------------|
B|----------------------------------------------------------------------------------------|
G|--11-11-11-9-11-11-11-9-11-11-9-9-7-7-14-14-12-12-12-12-12-12-12-12-11-11-11-11-9-9-9-9-|
D|----------------------------------------------------------------------------------------|   x4
A|---9--9--9-7--9--9--9-7--9--9-7-7-5-5-12-12-10-10-10-10-10-10-10-10--9--9--9--9-7-7-7-7-|
E|----------------------------------------------------------------------------------------|

[End On]
 GUITAR 1:
e|-----|
B|-----|
G|-----|
D|--5--|
A|--5--|
E|--3--|

 GUITAR 2:
e|-----|
B|-----|
G|--7--|
D|-----|
A|--5--|
E|-----|

************************************

            
            
Suggest correction
Creating personal tab
Creating personal tab
You can edit any tab online and save it as your Personal.

You can edit, replace or remove any tab part or add personal notes – all changes will be seen only by you.

Personal tabs can be accessed anytime from any device, even offline.
Learn more »
comments
print report bad tab
guest
You may want to rate the tab now too:
select rating
Wanna post a correction for this tab? Suggest correction