Oops, an error
Loading. Please wait.

The Country Song bass

version 2
version 2

Whole song

Interactive

551 views 1 this week
4 commentsread comments
1 2 3 4 5
x 4
add to favorites
×
Save as Personal and add changes to this tab that will be seen only by you. Learn more ›
×
You can save this tab as Personal to edit and correct it or add notes. All changes will be seen only by you. Learn more »
launch autoscroll
font size
0
reset
guitar tuner
edit
Autoscroll
slow
fast
+/-
esc
set tempo
stop
verse:
G----------------------------------------------------
D----------------------------------------------------
A-3----3------3------3-------------------------------
E---3-----3------3--------3------5-----7-------------

Play through twice then play

Chorus:
G---------------------------------------------------
D---------------------------------------------------
A-33------33------33------3-------------------------
E-----33------33------33-----3----5-----7-----------

Play through twice then play
Verse (2x)
chrous ( 1x)
this is my first tab hope i got it right enjoy

            
            
Suggest correction
Creating personal tab
Creating personal tab
You can edit any tab online and save it as your Personal.

You can edit, replace or remove any tab part or add personal notes – all changes will be seen only by you.

Personal tabs can be accessed anytime from any device, even offline.
Learn more »
comments
print report bad tab
4 comments total. Showing first comments.
0 reply
KJG182 10 May 23, 2002 08:00 PM

It's alright but instead try
A-3---0---2
E---3-

0 reply
uriel 182 50 May 25, 2002 08:00 PM

YOU SUCK GUY ! THIS TAB IS REALLY BAD

0 reply
guitarskatestud 0 May 27, 2002 08:00 PM

you stupid fag i have the book and its
E-0-2-4-5-0-5-0-5-0
etc.

guest
Wanna post a correction for this tab? Suggest correction