Oops, an error
Loading. Please wait.

The Party Song tab

version 1
version 1

Whole song

Interactive

11,106 views 15 this week
5 commentsread comments
1 2 3 4 5
x 9
add to favorites
×
Save as Personal and add changes to this tab that will be seen only by you. Learn more ›
×
You can save this tab as Personal to edit and correct it or add notes. All changes will be seen only by you. Learn more »
launch autoscroll
font size
0
reset
how to read this tab
guitar tuner
edit
Autoscroll
slow
fast
+/-
esc
set tempo
stop
Band: Blink 182
Song: The Party Song
Album: Enema of the State
Transcribed by:  Billy Woodward (yodad102@hotmail.com)

Verse
Chords (All through verse)
-------------|
-------------|
----9--6--9--|
-9--9--6--9--|
-9--7--4--7--|
-7-----------|

Verse
Chords (End of verse)
--------------------|
--------------------|
----9--6--9--11-----|
-9--9--6--9--11--9--|
-9--7--4--7--9---9--|
-7---------------7--|

Chorus
-----------------------------------------------|
-----------------------------------------------|
-----------------------------------------------| then
-----------------------------------------------|
-9--7--6-----7--6-----7--6-----7--6------------|
----------7--------7--------7--------7--7--9---|
Muted
---------------------------|
---------------------------|
-----9--6--9-----9--6--9---| then
--9--9--6--9--9--9--6--9---|
--9--7--4--7--9--7--4--7---|
--7-----------7------------|

------------------------------------------------------------|
------------------------------------------------------------|
------------------------------------------------------------|
------------------------------------------------------------|
--9-7-6---7-6-----7-6---7-6-----7-6---7-6-----7-6---7-7-----|
--------9-----9-7-----9-----9-7-----9-----9-7-----9-----9-7-|

Well, that's about it.  Just pretty much repeat it over and
over.  It is an awesome song and it is fun to play so enjoy!

Lyrics
Verse 1
Do you want to come to a party My friends picked me up in
their truck at 11:30 This thing's at a frat house but the
people are cool there Reluctant I followed but I never
dreamed there Would be someone there who would catch my
attention I wasn't out looking for love or affection So I
paid my 3 and the girls got in free Shined the beer for
teguila and we headed into the party And then in the backyard some terrible
ska band Someone in the background was doing a keg stand This place is so lame
all these girls look the same All these guys have no game I wish I would have
stayed In my bed back at home watching TV alone Where I'd put on some porn or
have sex on the phone Far from people I hate down from  anywhere state Trying
to intoxicate girls to give them head after the party
Chorus
And then I saw her standing there With green eyes and long
blond hair She wasn't wearing underwear at least I prayed
that She might be the one maybe we'd have some fun Maybe
we'd watch the sun rise But that night I learned some girls
try too hard Some girls try too hard Some girls try to hard
to impress With the way that they dress With those things
on their chests And the things they suggest to me
Verse 2
I couldn't believe what this lady was saying The names she
was dropping the games she was playing She dated this guy who now rides for
Black Flys How she's down with the 'wise
well-constructed disguise Now I'd rather go dateless than stay here and hate
this Her volume of makeup her fake tits were tasteless So I said I'd call her
but never would bother Until I got turned down by another girl at a party
Chorus
So when you see her standing there With green eyes and long
blonde hair She won't be wearing underwear and you'll discover This girl's not
the one and she'll never be fun You should just turn and run because you'll
find out that Some girls try too hard Some girls try too hard to impress with
the way that they dress With those things on their chest And the things thay
suggest to me

            
            
Suggest correction
Creating personal tab
Creating personal tab
You can edit any tab online and save it as your Personal.

You can edit, replace or remove any tab part or add personal notes – all changes will be seen only by you.

Personal tabs can be accessed anytime from any device, even offline.
Learn more »
comments
print report bad tab
5 comments total. Showing first comments.
0 reply
blink182_4_life 372 Feb 20, 2006 03:55 AM

good tab

0 reply
spix_fuego16 15 Jan 31, 2008 12:12 AM

Nice 'cept you're supposed to play each chord twice right? cuz you don't really specify.

0 reply
MusicMan24 1,124 Apr 27, 2009 06:58 PM

Specify dumbass!

guest
Wanna post a correction for this tab? Suggest correction