Oops, an error
Loading. Please wait.

Time To Break Up bass

version 1
version 1

Whole song

1,290 views 1 this week
no commentswrite comment
1 2 3 4 5
2 more votes to show rating
add to favorites
×
Save as Personal and add changes to this tab that will be seen only by you. Learn more ›
×
You can save this tab as Personal to edit and correct it or add notes. All changes will be seen only by you. Learn more »
launch autoscroll
font size
0
reset
guitar tuner
edit
Autoscroll
slow
fast
+/-
esc
set tempo
stop
Author
Difficulty
================================
Time To Break Up
Blink-182
Take Off Your Pants And Jacket
(Bonus Track - Red Plane) 2001
================================

Stardart Tuning (E-A-D-G)

Intro:
G|----------------|----------------| x1
D|----------------|----------------|
A|----------------|----------------|
E|4-4---2-2-2---1-|1-1---1-4-x-4-x-|

Intro Pt. II:
G|----------------|----------------|----------------|----------------| x2
D|----------------|----------------|----------------|----------------|
A|4---4-4-4-4-4-4-|4---4-4-4-4-4-4-|----------------|----------------|
E|----------------|----------------|4---4-4-4-4-4-4-|2---2-2-4---4-4-|

Verse:
G|----------------|----------------|----------------|----------------| x3
D|----------------|----------------|----------------|----------------|
A|4-4-4-4-4-4-4-4-|4-4-4-4-4-4-4-4-|----------------|----------------|
E|----------------|----------------|4-4-4-4-4-4-4-4-|2-2-2-2-2-2-2-2-|

G|----------------|----------------|----------------|----------------| x1
D|----------------|----------------|----------------|----------------|
A|4-4-4-4-4-4-4-4-|4-4-4-4-4-4-4-4-|----------------|----------------|
E|----------------|----------------|4-4-4-4-4-4-4-4-|2-2-----2-2-----|

Chorus:
G|----------------|----------------|----------------|----------------| 
D|----------------|----------------|----------------|----------------|  
A|4-4---4-4-4---4-|4-4---4-4-4---4-|8-8---8-8-8---8-|8-8---8-6--8--9-|
E|----------------|----------------|----------------|----------------|    
                                                                        
G|----------------|----------------|----------------|----------------|  
D|----------------|----------------|----------------|----------------|  
A|9-9---9-9-9---9-|9-9---9-9-9---9-|1111--111111--11|1111--111111--11|
E|----------------|----------------|----------------|----------------| 
Note: Are 11's, not 1's. Play 'Chorus' twice.

Repeat:
Intro Pt. II
Verse
Chorus.

And then:

Bridge (Only Guitar and Drums):
G|----------------|----------------|----------------|----------------| 
D|----------------|----------------|----------------|----------------|
A|4~~~------------|----------------|----------------|----------------|
E|----------------|----------------|----------------|----------------|

G|----------------|----------------|----------------|----------------| 
D|----------------|----------------|----------------|----------------|
A|----------------|----------------|----------------|----------------|
E|----------------|----------------|----------------|----------------|

Bridge Part II:
G|----------------|----------------|----------------|----------------| 
D|----------------|----------------|----------------|----------------|
A|----------------|----------------|----------------|----------------|
E|6---6-6-6---6-6-|6-6-6-6-6-6-6-6-|2---2-2-2---2-2-|2-2-2-2-2-2-2-2-|

G|----------------|----------------|----------------|----------------| 
D|----------------|----------------|----------------|----------------|
A|4-4-4-4-4-4-4-4-|4-4-4-4-4-4-4-4-|----------------|----------------|
E|----------------|----------------|4-4-4-4-4-4-4-4-|4-4-4-4-4-4-4-4-|
Play 'Brigde Part II' twice

Bridge Part III:
G|----------------|----------------|----------------|----------------| 
D|----------------|----------------|----------------|----------------|
A|4-4-4-4-4-4-4-4-|4-4-4-4-4-4-4-4-|----------------|----------------|
E|----------------|----------------|4-4-4-4-4-4-4-4-|4-4-4-4-4-4-4-4-|

G|----------------|----------------|----------------|----------------| 
D|----------------|----------------|----------------|----------------|
A|4-4-4-4-4-4-4-4-|4-4-4-4-4-4-4-4-|----------------|----------------|
E|----------------|----------------|4-4-4-4-4-4-4-4-|4-4-4-4-4-4-4-4-|

Brigde Part IV (Fill):
G|----------------|----------------|----------------|----------------| 
D|----------------|----------------|----------------|----------------|
A|4--4~-----------|----------------|----------------|----------------|
E|----------------|----------------|4--4~-----------|----------------|

G|----------------|----------------|----------------|----------------| 
D|----------------|----------------|----------------|----------------|
A|4--4~-----------|----------------|---6~-----------|----------------|
E|----------------|----------------|4~--------------|4-4-----4-4-----|

Play 'Chorus'. Make silence or improvise on drum fill, by the way.
Play 'Bridge Part III' faster than normal. And finish on 

A|4---------------|

Hope that this was helful, and Enjoy!
Suggest correction
Creating personal tab
Creating personal tab
You can edit any tab online and save it as your Personal.

You can edit, replace or remove any tab part or add personal notes – all changes will be seen only by you.

Personal tabs can be accessed anytime from any device, even offline.
Learn more »
Give kudos to tab author, rate the tab!
1 2 3 4 5
comments
print report bad tab
guest
You may want to rate the tab now too:
select rating
Wanna post a correction for this tab? Suggest correction