Oops, an error
Loading. Please wait.

Time tab

version 3
version 3

Whole song

Interactive

2,371 views 1 this week
2 commentsread comments
1 2 3 4 5
x 12
add to favorites
×
Save as Personal and add changes to this tab that will be seen only by you. Learn more ›
×
You can save this tab as Personal to edit and correct it or add notes. All changes will be seen only by you. Learn more »
launch autoscroll
font size
0
reset
how to read this tab
guitar tuner
edit
Autoscroll
slow
fast
+/-
esc
set tempo
stop
Author
Title:Time
Artist:blink-182
Album:Buddah
          intro
e|---------------------------------------|
b|---------------------------------------|
g|---------------------------------------| 
d|7~~---77-7\9--99-9\1111--1111/77---777-|
a|x~~---xx-5\7--77-7\9-9---9-9-/55---555-|
E|5~~---55-------------------------------|

e|---------------------------------------|
b|---------------------------------------|
g|---------------------------------------|
d|7~~---77-7\9--99-9\1111--1111/77-777777|
a|x~~---xx-5\7--77-7\9-9---9-9-/55-xxxxxx|
E|5~~---55-------------------------555555|


e|----------------------| |-------------------|
b|----------------------| |-------------------|
g|-------99-111111----99| |-------99-111111111| 2x
d|777-xx-xx-xxxxxx-xx-xx| |777-xx-xx-xxxxxxxxx|
a|xxx-xx-77-9-9-9--xx-77| |xxx-xx-77-9-9-9-9-9|
E|555-xx-----------xx---| |555-xx-------------|
~~~~~~~~~~~~~~~~~~~~~~~~~ 
play this part angain twice 
with alot of distortion 


  verse
e|---------------|  |--------------|
b|---------------|  |--------------|
g|----999-----777|  |----999-11-9-7| 4x 
d|777-xxx-777-xxx|  |777-xxx-x--x-x|
a|xxx-777-xxx-555|  |xxx-777-9--7-5|
E|555-----555----|  |555-----------|
these two riffs are switched back and forth

  chorus
e|---------------------|
b|---------------------|
g|-----9~-9-11~-11-7~-7|
d|7~-7-x~-x-x-~-x--x~-x|
a|x~-x-7~-7-9-~-9--5~-5|
E|5~-5-----------------|

            
            
Suggest correction
Creating personal tab
Creating personal tab
You can edit any tab online and save it as your Personal.

You can edit, replace or remove any tab part or add personal notes – all changes will be seen only by you.

Personal tabs can be accessed anytime from any device, even offline.
Learn more »
comments
print report bad tab
2 comments total.
0 reply
ClaptonFan13 30 Mar 10, 2006 02:41 PM

The Best Part of the song is incorrect, it goes like this...

e|------------------------------------------------------------------|
b|------------------------------------------------------------------|
g|-------7-xx-77-9-9-9-----7-xx-77--------7-xx-77-9-9-9-----7-xx-77-|
d|777-xx-7-xx-77-9-9-9--xx-7-xx-77-777-xx-7-xx-77-9-9-9--xx-7-xx-77-|
a|777-xx-5-xx-55-7-7-7--xx-5-xx-55-777-xx-5-xx-55-7-7-7--xx-5-xx-55-|
E|555-xx----------------xx---------555-xx----------------xx---------|

repeat

0 reply
DaAle12-9 72 Jun 13, 2007 03:18 PM

You left out the ska chords, and the main body of the song was just wrong.

guest
You may want to rate the tab now too:
select rating
Wanna post a correction for this tab? Suggest correction