Oops, an error
Loading. Please wait.

Time tab

version 4
version 4

Whole song

Interactive

2,327 views 1 this week
2 commentsread comments
1 2 3 4 5
1 last vote to show rating
add to favorites
×
Save as Personal and add changes to this tab that will be seen only by you. Learn more ›
×
You can save this tab as Personal to edit and correct it or add notes. All changes will be seen only by you. Learn more »
launch autoscroll
font size
0
reset
how to read this tab
guitar tuner
edit
Autoscroll
slow
fast
+/-
esc
set tempo
stop
Author
----------------------------------------------------------------------------
                       TIME - Blink-182
----------------------------------------------------------------------------

Tabbed by:drumbumpv
Email:i dont think so

Tuning:Standard

Intro part 1 (7 measures of bass)
e|-------------------x-5-5-5-x-2-2-2-x-4-4-4-x-2-2-2-----------------------|
B|-9/7-7-7-7-7-7-7-7-x-5-5-5-x-3-3-3-x-5-5-5-x-3-3-3-----------------------|
G|-9/7-7-7-7-7-7-7-7-x-6-6-6-x-2-2-2-x-4-4-4-x-2-2-2-----------------------|
D|-9/7-7-7-7-7-7-7-7-x-7-7-7-----------------------------------------------|
A|-------------------------------------------------------------------------|
E|-------------------------------------------------------------------------|
                      ^ HERE TO HERE IS PLAYED TWICE ^ on the 2nd and fourth time, stop 
that last chord and just keep repeating the 3rd one

Intro part 2
e|-------------------------------------------------------------------------|
B|-------------------------------------------------------------------------|
G|-----------------------9--9-9-9--9-9-9-9--11--11-11-11--11-11-11-11------|
D|---7--7-7-7--7-7-7-7---9--9-9-9--9-9-9-9--11--11-11-11--11-11-11-11------|
A|---7--7-7-7--7-7-7-7---7--7-7-7--7-7-7-7--9---9--9--9---9--9--9--9-------|
E|---5--5-5-5--5-5-5-5-----------------------------------------------------|

e|-------------------------------------------------------------------------|
B|-------------------------------------------------------------------------|
G|---7--7-7-7--7-7-7-7-----------------------------------------------------|
D|---7--7-7-7--7-7-7-7-----------------------------------------------------|
A|---5--5-5-5--5-5-5-5-----------------------------------------------------|
E|-------------------------------------------------------------------------|

Play Intro part 2 twice

Verse 1
e|-------------------------------------------------------------------------|
B|-------------------------------------------------------------------------|
G|----------9-99----------7-77---------------------------------------------|
D|---7------9-99---4------7-77---------------------------------------------|
A|---7-77---7-77---4-44---5-55---------------------------------------------|
E|---5-55----------2-22----------------------------------------------------|
  P.M. ..            ..         Play Verse 1 4 times

Chorus
e|-------------------------------------------------------------------------|
B|-------------------------------------------------------------------------|
G|----------9-~~~--11-~~~---7-~~~------------------------------------------|
D|---7-~~~--9-~~~--11-~~~---7-~~~------------------------------------------|
A|---7-~~~--7-~~~---9-~~~---5-~~~------------------------------------------|
E|---5-~~~-----------------------------------------------------------------|
            Play the chorus twice

play intro part 1 again (just the part where it says to play twice)
play intro part 2 again
play verse 1 as verse 2
play the chrous again

Outro
e|-------------------------------------------------------------------------|
B|-------------------------------------------------------------------------|
G|--------------------------------9--9-9--9-9-9-9--99--9-9-9---------------|
D|---7--7-7--7-7-7-7--77--7-7-7---9--9-9--9-9-9-9--99--9-9-9---------------|
A|---7--7-7--7-7-7-7--77--7-7-7---7--7-7--7-7-7-7--77--7-7-7---------------|
E|---5--5-5--5-5-5-5--55--5-5-5--------------------------------------------|

e|-------------------------------------------------------------------------|
B|-------------------------------------------------------------------------|
G|--7--7-7--7-7-7-7--77--7-7-7---7--7-7--7-7-7-7--77--7-7-7----------------|
D|--7--7-7--7-7-7-7--77--7-7-7---7--7-7--7-7-7-7--77--7-7-7----------------|
A|--5--5-5--5-5-5-5--55--5-5-5---5--5-5--5-5-5-5--55--5-5-5----------------|
E|-------------------------------------------------------------------------|

play outro 4 times

End On
e|-------------------------------------------------------------------------|
B|-------------------------------------------------------------------------|
G|-------------------------------------------------------------------------|
D|---7-~~~~~~~~------------------------------------------------------------|
A|---7-~~~~~~~~------------------------------------------------------------|
E|---5-~~~~~~~~------------------------------------------------------------|

THATS IT!!!!!!!! pretty easy...yep...also my first tab...PLEEZE RATE!!!!!!

            
            
Suggest correction
Creating personal tab
Creating personal tab
You can edit any tab online and save it as your Personal.

You can edit, replace or remove any tab part or add personal notes – all changes will be seen only by you.

Personal tabs can be accessed anytime from any device, even offline.
Learn more »
Give kudos to tab author, rate the tab!
1 2 3 4 5
comments
print report bad tab
2 comments total.
0 reply
drumbumpv 30 Nov 16, 2009 01:32 PM

e|---------------------5-5-5---2-2-2---4-4-4---2-2-2-----------------------|
B|---7-7-7-7-7-7-7-7---5-5-5---3-3-3---5-5-5---3-3-3-----------------------|
G|---7-7-7-7-7-7-7-7---6-6-6---2-2-2---4-4-4---2-2-2-----------------------|
D|---7-7-7-7-7-7-7-7---7-7-7-----------------------------------------------|
A|-------------------------------------------------------------------------|
E|-------------------------------------------------------------------------|
^ HERE TO HERE IS PLAYED TWICE ^

0 reply
drumbumpv 30 Nov 16, 2009 01:35 PM

e|-------------------x-5-5-5-x-2-2-2-x-4-4-4-x-2-2-2-----------------------|
B|-9/7-7-7-7-7-7-7-7-x-5-5-5-x-3-3-3-x-5-5-5-x-3-3-3-----------------------|
G|-9/7-7-7-7-7-7-7-7-x-6-6-6-x-2-2-2-x-4-4-4-x-2-2-2-----------------------|
D|-9/7-7-7-7-7-7-7-7-x-7-7-7-----------------------------------------------|
A|-------------------------------------------------------------------------|
E|-------------------------------------------------------------------------|
^ HERE TO HERE IS PLAYED TWICE ^ on the 2nd and fourth time, stop playing that last chord and just keep repeating the 3rd one
srry i messed up on that other correction

guest
You may want to rate the tab now too:
select rating
Wanna post a correction for this tab? Suggest correction