Oops, an error
Loading. Please wait.

Touchdown Boy bass

version 3
version 3

Whole song

Interactive

188 views 1 this week
no commentswrite comment
1 2 3 4 5
2 more votes to show rating
add to favorites
×
Save as Personal and add changes to this tab that will be seen only by you. Learn more ›
×
You can save this tab as Personal to edit and correct it or add notes. All changes will be seen only by you. Learn more »
launch autoscroll
font size
0
reset
guitar tuner
edit
Autoscroll
slow
fast
+/-
esc
set tempo
stop
Author
-------------------------------------------------------------------------------
                             Touchdown Boy - Blink 182
-------------------------------------------------------------------------------
Tabbed by: Arman Kobzhassarov
E-mail: armanvl10@yahoo.com

These tabs was written by me, and I believe that these tabs as the same as original bass 
part. Try it and write me to e-mail or comment it below.


Chorus (starts at 0:10 sec) [4x]:
G|------------------------------------------|
D|------------------------------------------|
A|---------777666---------------------------|
E|--00000----------77777--555444------------|

Verse [2x]:
G|-------------------------------------------|
D|-------------------------------------------|
A|--77777--44444--22222--00000---------------|
E|-------------------------------------------|

Verse 2 [2x]:
G|------------------------------------------------------------------------------|
D|------------------------------------------------------------------------------|
A|--77777--999--11-11-11--------------------------------------------------------|
E|--------------------------77777--999--777--55555--777--555--0000000000--------|

Verse 3:
G|--------------------------------------------------------------------------------------|
D|--------------------------------------------------------------------------------------|
A|--77777--00000--11-11-11-11-11--99999--77777--00000--22222-slide-14-14-14-14-14-------|
E|--------------------------------------------------------------------------------------|

Verse [4x]:
G|-------------------------------------------|
D|-------------------------------------------|
A|--77777--44444--22222--00000---------------|
E|-------------------------------------------|

Verse 2 [2x]:
G|------------------------------------------------------------------------------|
D|------------------------------------------------------------------------------|
A|--77777--999--11-11-11--------------------------------------------------------|
E|--------------------------77777--999--777--55555--777--555--0000000000--------|

Chorus [4x]:
G|------------------------------------------|
D|------------------------------------------|
A|---------777666---------------------------|
E|--00000----------77777--555444------------|

Verse 4 (when starting dialog between Mark and Tom) [4x]:
G|------------------------------------------------|
D|------------------------------------------------|
A|--77777--00000--11-11-11-11-11--99999-----------|
E|------------------------------------------------|

Verse [2x]:
G|-------------------------------------------|
D|-------------------------------------------|
A|--77777--44444--22222--00000---------------|
E|-------------------------------------------|

Verse 2 [2x]:
G|------------------------------------------------------------------------------|
D|------------------------------------------------------------------------------|
A|--77777--999--11-11-11--------------------------------------------------------|
E|--------------------------77777--999--777--55555--777--555--0000000000--------|

Chorus [4x]:
G|------------------------------------------|
D|------------------------------------------|
A|---------777666---------------------------|
E|--00000----------77777--555444------------|

            
            
Suggest correction
Creating personal tab
Creating personal tab
You can edit any tab online and save it as your Personal.

You can edit, replace or remove any tab part or add personal notes – all changes will be seen only by you.

Personal tabs can be accessed anytime from any device, even offline.
Learn more »
Give kudos to tab author, rate the tab!
1 2 3 4 5
comments
print report bad tab
guest
You may want to rate the tab now too:
select rating
Wanna post a correction for this tab? Suggest correction