Oops, an error
Loading. Please wait.

Tv Bass Tab

version 2
version 2

Whole song

Interactive

2,093 views 6 this week
6 commentsread comments
1 2 3 4 5
x 9
add to favorites
launch autoscroll
font size
0
reset
guitar tuner
×
Best way to learn
"Tv"
Autoscroll
slow
fast
+/-
esc
set tempo
stop
this is how you really play it:

intro:
G:--5---5---/10---10---/5---5---/10---10---/|
D:-3-333-3-/8--888--8-/3-333-3-/8--888--8-/-|
A:------------------------------------------|
E:------------------------------------------|

cont:
G:-5---5---/10---10---/-17------17----/10---10-|
D:3-333-3-/8--888--8-/15--151515--15-/8--888--8|
A:---------------------------------------------|
E:---------------------------------------------|

cont:
G:------3333-0000-3333------3333-0000-3333|
D:-3333----------------3333---------------|
A:----------------------------------------|
E:----------------------------------------|

cont:
G:----------33333333----------33333333|
D:-33333333----------33333333---------|
A:------------------------------------|
E:------------------------------------|

cont:
G:------3333-0000-5555------3333-0000-5555--|
D:-3333----------------3333-----------------|
A:------------------------------------------|
E:------------------------------------------|

verse:
G:----3>------------------------------------|
D:-3>---------------------------------------|
A:------------------------------------------|
E:------------------------------------------|

chorus:
G:------3333-0000-5555------3333-0000-5555---|
D:-3333----------------3333----------------3>|
A:-------------------------------------------|
E:-------------------------------------------|

That's it, another brilliant song by Blink.
Tabbed by Murray.
Suggest correction
comments
print report bad tab
6 comments total. Showing first comments.
0 reply
Gonzo_182 0 Feb 19, 2002 07:00 PM

this tab sucks. Gordon

0 reply
mARK HopPus 35 Mar 11, 2002 07:00 PM

this is the correct intro, copied from the blink 182 tab book:

Intro:
G|----5---5--5-----/10---10---10----5---5--5-----/10---10----10--------------|
D|-33---33--3---/88----88----8---33---33--3---/88----88----88----------------|
A|---------------------------------------------------------------------------|
E|---------------------------------------------------------------------------|

Cont:
G|----5---5---5----/10----10--10-------/17------17---17----------------------|
D|-33---33--3---/88----88----8---/15-15---15-15----15------------------------|
A|---------------------------------------------------------------------------|
E|---------------------------------------------------------------------------|
-there are loosers like you born every minute-

0 reply
mARK HopPus 35 Mar 11, 2002 07:00 PM

oh, and the Chorus at the end of this tab doesn't have a 3> at the end of it

guest
You may want to rate the tab now too:
select rating
Wanna post a correction for this tab? Suggest correction