Oops, an error
Loading. Please wait.
We have an official Violence tab made by UG professional guitarists. Check out the tab »
×
1,819 views 9 this week
2 commentsread comments
1 2 3 4 5
x 11
add to favorites
×
Save as Personal and add changes to this tab that will be seen only by you. Learn more ›
×
You can save this tab as Personal to edit and correct it or add notes. All changes will be seen only by you. Learn more »
launch autoscroll
font size
0
reset
how to read this tab
guitar tuner
edit
Autoscroll
slow
fast
+/-
esc
set tempo
stop
Author
This is violence by blink 182. All the other tabs right now for this song,
which is like 6, arnt right.  This tab is alot more correct, just about perfect.

Intro (X3)....Bend these notes like crazy...Find the pattern, its easy 
E----------------------------------------------------------------
B----------------------------------------------------------------
G----------------------------------------------------------------
D-----------------------9-9-9-9  only play this part the first---
A-----------------(X4)--9-9-9-9  two times-----------------------
E---7-7-7-7-7-7-7-------7-7-7-7----------------------------------

Intro Part Two (X2)
E----------------------------------------------------------------
B----------------------------------------------------------------
G--444444444444-666666666666-------------------------------------
D--444444444444-666666666666-666666666666-888888888888-----------
A--222222222222-444444444444-666666666666-888888888888-----------
E----------------------------444444444444-666666666666-----------

Verse 1
-No Guitar-

Chorus (X2)
E----------------------------------------------------------------
B----------------------------------------------------------------
G--444444444444-666666666666-------------------------------------
D--444444444444-666666666666-666666666666-888888888888-----------
A--222222222222-444444444444-666666666666-888888888888-----------
E----------------------------444444444444-666666666666-----------

Verse 2
-No Guitar-

Chorus (X2)

Interlude (X5)
E----------------------------------------------------------------
B----------------------------------------------------------------
G----------------------------------------------------------------
D----4--4-4--4--4-4--4--4-4--4--4-4------------------------------
A--22-22-2-44-44-4-----------------------------------------------
E------------------44-44-4-00-00-0-------------------------------

Chorus (X4)

Outro....just like the intro, bend these notes
E----------------------------------------------------------------
B----------------------------------------------------------------
G----------------------------------------------------------------
D----------------------------------------------------------------
A----------------------------------------------------------------
E--7-7-7-7-7-7-7-7-7--fades out....------------------------------

The rest of the song, the whole talking part, is all piano. Enjoy!
Suggest correction
Creating personal tab
Creating personal tab
You can edit any tab online and save it as your Personal.

You can edit, replace or remove any tab part or add personal notes – all changes will be seen only by you.

Personal tabs can be accessed anytime from any device, even offline.
Learn more »
comments
print report bad tab
2 comments total.
0 reply
blue epic 10 Jun 07, 2004 08:00 PM

Tab is right for notes for the most part, but tom plays with a capo on the 2nd fret.
ecxept the chorus (with the capo)
is
|---------------------------------
|---------------------------------
|---------------------------------
|--7--------9-------4------4------
|----(9x)0---(9x)0--(9x)0----(9x)0
|--5-----0--7----0--2---0--6-----0
If u do not have a capo play all notes 2 frets up

and the interlude goes like this
|-----------------------------------------4----4---4-----5-----5---5-
|------2------2---2--------------------------------------------------
|------------------------4-----4---4---------6---6-----------7---7---
|-----------4---4------------2---2-----6---------------7-------------
|----4----------------2--------------4-----4---------5-----5---------
|--2------2---------0------0-----------------------------------------
(remember if no cappo play all notes 2 frets up which would make the 0 = 2.

0 reply
Spikez_ 10 Jun 13, 2004 08:00 PM

sweet

guest
You may want to rate the tab now too:
select rating
Wanna post a correction for this tab? Suggest correction