Oops, an error
Loading. Please wait.

Voyeur Bass Tab

version 3
version 3

Whole song

Interactive

8,098 views 6 this week
4 commentsread comments
1 2 3 4 5
accurate
x 6
add to favorites
launch autoscroll
font size
0
reset
guitar tuner
Tab Pro tools
  • play this tab
  • loop segment
  • change instrument
  • show fretboard
  • metronome
×
Best way to learn
"Voyeur"
Autoscroll
slow
fast
+/-
esc
set tempo
stop
Contributor
Difficulty
intermediate
Tabbed by Andy!
Blink-182
Voyeur (how do you pronounce that?)

I am almost %100 this is right
everyone else has lame tabs on this so
as my present to you!

I give you BLINK!!

Intro

wait for a second..

g------------|
d------------|
a----10-8-7--|
e--8---------|

And then..

g------------------------|
d------------------------|
a-33333333--0000---------|
e------------------1111--|

g--------------------------------|
d--------------------------------|
a-33333333--0000-----------------|
e------------------111111111111--|

g----------------|
d----------------|
a----------------|
e-3333--1111-----|

g------------------------|
d--------3---------------|
a-33-33-----33-33--------|
e-----------------3------|

g------------------------------------|
d------------------------------------|  x2
a------------------333333------------|
e333333---111111------------333333---|

g----------------|
d----------------|
a----------------|
e-3333--1111-----|


g------------------------|
d--------3---------------|
a-33-33-----33-33--------|
e-----------------3------|


g-----------------------|
d--------3--------------|
a-33-33-----33-33-------|
e-----------------3-----|

Back to intro

g------------|
d------------|
a----10-8-7--|
e--8---------|

g------------------------|
d------------------------|
a-33333333--0000---------|
e------------------1111--|

g--------------------------------|
d--------------------------------|
a-33333333--0000-----------------|
e------------------111111111111--|

g----------------|
d----------------|
a----------------|
e-3333--1111-----|

g------------------------|
d--------3---------------|
a-33-33-----33-33--------|
e-----------------3------|

g------------------------------------|
d------------------------------------|  x2
a------------------333333------------|
e333333---111111------------333333---|

g----------------|
d----------------|
a----------------|
e-3333--1111-----|


g------------------------|
d--------3---------------|
a-33-33-----33-33--------|
e-----------------3------|


g---------------------|
d--------3------------|
a-33-33-----33-33-----|
e-----------------3---|


then go into this!

g------------------------|
d------------------------|
a-3333-------------------|  x3
e------1111--3333--1111--|

g---------------------------------|
d---------------------------------|
a-3333----------------------------|
e------1111--3333--1111--33333333-|

back to this

g------------|
d------------|
a----10-8-7--|
e--8---------|

g------------------------|
d------------------------|
a-33333333--0000---------|
e------------------1111--|

g--------------------------------|
d--------------------------------|
a-33333333--0000-----------------|
e------------------111111111111--|

g----------------|
d----------------|
a----------------|
e-3333--1111-----|

g------------------------|
d--------3---------------|
a-33-33-----33-33--------|
e-----------------3------|

g------------------------------------|
d------------------------------------|  x2
a------------------333333------------|
e333333---111111------------333333---|

g----------------|
d----------------|
a----------------|
e-3333--1111-----|


g------------------------|
d--------3---------------|
a-33-33-----33-33--------|
e-----------------3------|


g---------------------|
d--------3------------|
a-33-33-----33-33-----|
e-----------------3---|

g------------------------|
d------------------------|
a-3333-------------------|  x3
e------1111--3333--1111--|

g---------------------------------|
d---------------------------------|
a-3333----------------------------|
e------1111--3333--1111--33333333-|


Easy Fast Solo!

g-----------------------|
d-333----555--3---5-----|
a-----3---------3-------|   x6
e-----------------------|

g--------------------|
d---------3----------|
a--33-33----33-33----|
e-----------------3--|

g-----------------------|
d---------3-------------|
a--33-33----33-33----3--|
e-----------------3-----|

Thats it :D
Rate pleaseee!
comments
print report bad tab
4 comments total. Showing first comments. show 1 bad comment
0 reply
willmclnz wrote on February 15 2009, 02:51 am

Good job!

0 reply
metaldrummer88 wrote on August 7 2009, 08:59 pm

its pronouced like voye-urr...and nice tab!

I want to post or [tab]
guest
You may want to rate the tab now too:
select rating
Please do not post tabs as comments. Select "correction" instead!