Oops, an error
Loading. Please wait.
We have an official Wasting Time tab made by UG professional guitarists. Check out the tab »
×
1,057 views 24 this week
1 commentread comment
1 2 3 4 5
x 3
add to favorites
×
Save as Personal and add changes to this tab that will be seen only by you. Learn more ›
×
You can save this tab as Personal to edit and correct it or add notes. All changes will be seen only by you. Learn more »
launch autoscroll
font size
0
reset
how to read this tab
guitar tuner
edit
Autoscroll
slow
fast
+/-
esc
set tempo
stop
Author
-------------------------------------------------------------------------------
                             Wasting Time - blink-182
-------------------------------------------------------------------------------
Tabbed by: Will Fewster
E-mail: willfewster1996@gmail.com

Tuning: Standard (E,A,D,G,B,E)


e|---------------------------------------------------------------------------|
B|---------------------------------------------------------------------------|
G|---------------------------------------------------------------------------|
D|--------9--7--6\2--2--0--7--9--7--6--0--------6--7--6-----4--------4--2----|    x2
A|-----7---------0------------------------4--4-----------2-----2--2----------|
E|--0------------------------------------------------------------------------|

e|---------------------------------------------------------------------------|
B|---------------------------------------------------------------------------|
G|--2-222-------------66-666--4-44-4444--------------------------------------|
D|--2-222--2-22-2222--66-666--4-44-4444--------------------------------------|    x3
A|--0-000--2-22-2222--44-444--2-22-2222--------------------------------------|
E|---------0-00-0000---------------------------------------------------------|

e|---------------------------------------------------------------------------|
B|---------------------------------------------------------------------------|
G|--2-222-------------66-6666-66-6666--44-4444-44-4444--22-2222-22-2222------|
D|--2-222--2-22-2222--66-6666-66-6666--44-4444-44-4444--22-2222-22-2222------|    x1
A|--0-000--2-22-2222--44-4444-44-4444--22-2222-22-2222--00-0000-00-0000------|
E|---------0-00-0000---------------------------------------------------------|

e|---------------------------------------------------------------------------|
B|--10-----------10--10------------------------------------------------------|
G|------9-----9----------9-----9---------------------------------------------|
D|---------7----------------7------------------------------------------------|    x1
A|---------------------------------------------------------------------------|
E|---------------------------------------------------------------------------|

e|---------------------------------------------------------------------------|
B|---------------------------------------------------------------------------|
G|---------------------------------------------------------------------------|
D|--------9--7--6\2--2--0--7--9--7--6--0--------6--7--6-----4--------4--2----|    x2
A|-----7---------0------------------------4--4-----------2-----2--2----------|
E|--0------------------------------------------------------------------------|

e|---------------------------------------------------------------------------|
B|---------------------------------------------------------------------------|
G|------------2-222222--6-666666--4-444444-----------------------------------|
D|--2-222222--2-222222--6-666666--4-444444-----------------------------------|    x4
A|--2-222222--0-000000--4-444444--2-222222-----------------------------------|
E|--0-000000-----------------------------------------------------------------|

e|---------------------------------------------------------------------------|
B|---------------------------------------------------------------------------|
G|--2-222-------------66-666--4-44-4444--------------------------------------|
D|--2-222--2-22-2222--66-666--4-44-4444--------------------------------------|    x3
A|--0-000--2-22-2222--44-444--2-22-2222--------------------------------------|
E|---------0-00-0000---------------------------------------------------------|

e|---------------------------------------------------------------------------|
B|---------------------------------------------------------------------------|
G|--2-222-------------66-6666-66-6666--44-4444-44-4444--22-2222-22-2222------|
D|--2-222--2-22-2222--66-6666-66-6666--44-4444-44-4444--22-2222-22-2222------|    x1
A|--0-000--2-22-2222--44-4444-44-4444--22-2222-22-2222--00-0000-00-0000------|
E|---------0-00-0000---------------------------------------------------------|

e|---------------------------------------------------------------------------|
B|--10-----------10--10------------------------------------------------------|
G|------9-----9----------9-----9---------------------------------------------|
D|---------7----------------7------------------------------------------------|    x1
A|---------------------------------------------------------------------------|
E|---------------------------------------------------------------------------|

e|---------------------------------------------------------------------------|
B|---------------------------------------------------------------------------|
G|---------------------------------------------------------------------------|
D|--------9--7--6\2--2--0--7--9--7--6--0--------6--7--6-----4--------4--2----|    x2
A|-----7---------0------------------------4--4-----------2-----2--2----------|
E|--0------------------------------------------------------------------------|

e|---------------------------------------------------------------------------|
B|---------------------------------------------------------------------------|
G|------------2-222222--6-666666--4-444444-----------------------------------|
D|--2-222222--2-222222--6-666666--4-444444-----------------------------------|    x2
A|--2-222222--0-000000--4-444444--2-222222-----------------------------------|
E|--0-000000-----------------------------------------------------------------|
      __pm__    __pm__    __pm__    __pm__

e|---------------------------------------------------------------------------|
B|---------------------------------------------------------------------------|
G|------------2-222222--6-666666--4-444444-----------------------------------|
D|--2-222222--2-222222--6-666666--4-444444-----------------------------------|    x2
A|--2-222222--0-000000--4-444444--2-222222-----------------------------------|
E|--0-000000-----------------------------------------------------------------|

e|---------------------------------------------------------------------------|
B|---------------------------------------------------------------------------|
G|--2-222-------------66-666--4-44-4444--------------------------------------|
D|--2-222--2-22-2222--66-666--4-44-4444--------------------------------------|    x3
A|--0-000--2-22-2222--44-444--2-22-2222--------------------------------------|
E|---------0-00-0000---------------------------------------------------------|

e|---------------------------------------------------------------------------|
B|---------------------------------------------------------------------------|
G|--2-222-------------66-6666-66-6666--44-4444-44-4444--22-2222-22-2222------|
D|--2-222--2-22-2222--66-6666-66-6666--44-4444-44-4444--22-2222-22-2222------|    x1
A|--0-000--2-22-2222--44-4444-44-4444--22-2222-22-2222--00-0000-00-0000------|
E|---------0-00-0000---------------------------------------------------------|

e|---------------------------------------------------------------------------|
B|--10-----------10--10------------------------------------------------------|
G|------9-----9----------9-----9---------------------------------------------|
D|---------7----------------7------------------------------------------------|    x1
A|---------------------------------------------------------------------------|
E|---------------------------------------------------------------------------|

e|---------------------------------------------------------------------------|
B|---------------------------------------------------------------------------|
G|---------------------------------------------------------------------------|
D|--------9--7--6\2--2--0--7--9--7--6--0--------6--7--6-----4--------4--2----|    x3
A|-----7---------0------------------------4--4-----------2-----2--2----------|
E|--0------------------------------------------------------------------------|

e|---------------------------------------------------------------------------|
B|---------------------------------------------------------------------------|
G|----------------------------------------6-666666--4-444444--2--------------|
D|--------9--7--6\2--2--0--7--9--7--6--0--6-666666--4-444444--2--------------|    x1
A|-----7---------0------------------------4-444444--2-222222--0--------------|
E|--0------------------------------------------------------------------------|



************************************

| /   slide up
| \   slide down
| h   hammer-on
| p   pull-off
| ~   vibrato
| +   harmonic
| x   Mute note
| b   Bend
| pb  Pre-bend
| br  Bend release
| pbr Pre-bend release
| brb Bend release bend

************************************

            
            
Suggest correction
Creating personal tab
Creating personal tab
You can edit any tab online and save it as your Personal.

You can edit, replace or remove any tab part or add personal notes – all changes will be seen only by you.

Personal tabs can be accessed anytime from any device, even offline.
Learn more »
Give kudos to tab author, rate the tab!
1 2 3 4 5
comments
print report bad tab
1 comment total.
0 reply
Strobber 140 Mar 22, 2016 02:30 AM

Great tab, but I think the intro is slightly different, kind of like this

e|---------------------------------------------------------|
B|---------------------------------------------------------|
G|---------------------------------------------------------|
D|------9-7-6--2-2-6-7-9-7-6--6-6---7-6-4--4-4-------------|
A|--7-7--------0-0------------4---4--------2-2-7-9-7-------|
E|--0------------------------------------------------------|

I like to think of it as small section, whenever you strike a new chord, that's the new section you're playing. Easier to learn that way. Of course
there are many positions to play these same notes but they sound
the best to me this way

guest
You may want to rate the tab now too:
select rating
Wanna post a correction for this tab? Suggest correction