Oops, an error
Loading. Please wait.

Wendy Clear Tab

version 2
version 2
1,483 views 1 this week
1 commentread comment
1 2 3 4 5
please rate
add to favorites
launch autoscroll
font size
0
reset
how to read this tab
guitar tuner
Tab Pro tools
  • play this tab
  • loop segment
  • change instrument
  • show fretboard
  • metronome
×
Best way to learn
"Wendy Clear"
Autoscroll
slow
fast
+/-
esc
set tempo
stop
Blink182,  Wendy Clear
Sarah S.,  BusfaceIM@aol.com
Song: Wendy Clear
By: Blink182
Album: Enema of the State
Tabbed By: Sarah S. (BusfaceIM@aol.com)
Date: 9/25/99

Tuning: Standard

This song is played REALLY fast.  Listen to the CD to get the timing right. I think this is pretty accurate, but if there are comments/questions/corrections please send to me!!!  This song is picked funny but if you listen closely you will hear when to pick up and down!!! 


Intro/ Solo:
e]-------------------
B]-------------------
G]-----5-------------   Play this 8x
D]-----5---0-3-2-----
A]---3-3-3-----------
E]-------------------  


Verse: (0:16)
e]----------------------------------------------------------
B]----------------------------------------------------------
G]---5 (9x)-----------------------------5 (27x)-------------
D]---5-------5--3 (9x)--5 (4x)--3 (4x)--5--------5--3 (9x)--
A]---3-------5--3-------5-------3-------3--------5--3-------
E]-----------3--1-------3-------1----------------3--1-------


e]----------------------------------------------------------
B]----------------------------------------------------------
G]-------------------5 (9x)------------------5 (9x)---------
D]---5 (4x)--3 (4x)--5-------5 (4x)--3 (4x)--5-------5 (4x)-
A]---5-------3-------3-------5-------3-------3-------5------
E]---3-------1---------------3-------1---------------3------


e]-------------------
B]-------------------
G]-----------5 (9x)--
D]---3 (4x)--5------- Then the song slows down alittle....
A]---3-------3-------
E]---1---------------



e]-------------------------
B]-------------------------
G]---5 (3x)---------------- Play that 3x
D]---5-------5--3 (3x)--5--
A]---3-------5--3-------5--
E]-----------3--1-------3--


(0:52)
Then play the Intro/ Solo 7x  


(At 1:04 there is a bass/ drum solo... NO GUITAR)


(1:23)
e]--------------------------- 
B]---------------------------
G]---5 (9x)------------------
D]---5-------5 (4x)--3 (4x)-- Play that 4x
A]---3-------5-------3-------
E]-----------3-------1-------


(1:40)
e]------------------------------------
B]------------------------------------
G]---5 (9x)----------5 (9x)-----------
D]---5-------xx (7x)-5-------xx (7x)--
A]---3-------xx------3-------xx------- (x = muted)
E]-----------xx--------------xx-------



Intro/ Solo -- 7x (1:57)



Ending: (2:13)
e]---------------------------------------------------------
B]---------------------------------------------------------
G]---5 (5x)----------5 (9x)-----------------5 (9x)---------
D]---5-------5 (5x)--5------5 (4x)--3 (4x)--5-------5 (4x)-
A]---3-------5-------3------5-------3-------3-------5------
E]-----------3--------------3-------1---------------3------


e]----------------------------------------------------------
B]----------------------------------------------------------
G]-----------5 (9x)------------------5 (9x)-----------------
D]---3 (4x)--5-------5 (4x)--3 (4x)--5-------5 (4x)--3 (4x)-
A]---3-------3-------5-------3-------3-------5-------3------
E]---1---------------3-------1---------------3-------1------


e]-----------------------------------------------
B]-----------------------------------------------
G]---5 (9x)------------------5 (9x)----------5---
D]---5-------5 (4x)--3 (4x)--5-------5---3---5---
A]---3-------5-------3-------3-------5---3---3---
E]-----------3-------1---------------3---1-------

That's it!!!!  ENJOY!!!!

comments
We did not receive enough feedback on this tab! Please rate:
print report bad tab
1 2 3 4 5
1 comment total.
0 reply
DerreckW wrote on February 9 2002, 12:00 am

intros wrong yet again zappp just buy the book

I want to post or [tab]
guest
You may want to rate the tab now too:
select rating
Please do not post tabs as comments. Select "correction" instead!