Oops, an error
Loading. Please wait.

Wendy Clear bass

version 3
version 3

Whole song

Interactive

13,330 views 12 this week
6 commentsread comments
1 2 3 4 5
x 6
add to favorites
×
Save as Personal and add changes to this tab that will be seen only by you. Learn more ›
×
You can save this tab as Personal to edit and correct it or add notes. All changes will be seen only by you. Learn more »
launch autoscroll
font size
0
reset
guitar tuner
edit
Autoscroll
slow
fast
+/-
esc
set tempo
stop
----------------------------------------------------------------------------
			  WENDY CLEAR - blink-182
----------------------------------------------------------------------------

Tabbed By : alfonzthemonkey
e-mail: alfonzothemonkey@hotmail.co.uk

Tuning:standard

> = x8
intro:
G|-------------------------------|
D|-------------------------------|
A|--------8>8>8>8>-10>10>-8>8>---| x1
E|8>8>8>8>-----------------------|

verse:
G|---------------------------------------------|
D|---------------------------------------------|
A|3>3>3>3>----------3>3>3>3>3>3>----------3>3>-| x2
E|--------1>1>-5>-1>------------1>1>-5>-1>-----|

(but i'll play with fire to break the ice...)
G|-----------|
D|-----------|
A|10>-8>-----| x2
E|------8>8>-|

(this is something...)
G|------------------------------|
D|------------------------------|
A|----------3333----------------| x1
E|5555-1111------3333-5>-1>-----|

intro:
G|-------------------------------|
D|-------------------------------|
A|--------8>8>8>8>-10>10>-8>8>---| x1
E|8>8>8>8>-----------------------|

verse:
G|---------------------------------------------|
D|---------------------------------------------|
A|3>3>3>3>----------3>3>3>3>3>3>----------3>3>-| x2
E|--------1>1>-5>-1>------------1>1>-5>-1>-----|

(but i'll play with fire to break the ice...)
G|-----------|
D|-----------|
A|10>-8>-----| x2
E|------8>8>-|

(this is something...)
G|-----------------------------------|
D|-----------------------------------|
A|----------3333---------------------| x1
E|5555-1111------3333-5555-1111-8>8>-|

bridge:
G|----------------------|
D|----------------------|
A|------33--------------| x1
E|55-11---33-55-11-8>8>-|

G|-------------------------------------------------------|
D|-------------------------------------------------------|
A|------33------------------8>8>8>8>-10>10>-8>8>---------| x1
E|55-11---33-55-11-8>8>8>8>---------------------8>8>8>8>-|



outro:
G|------------------|
D|------------------|
A|-----10>-8--------| x2
E|8>8>--------------|

G|---------|
D|---------|
A|---------| x1
E|3~-1~-8~-|

| /  slide up
| \  slide down
| h  hammer-on
| p  pull-off
| ~  vibrato
| +  harmonic
| x  Mute note
============================================================================

            
            
Suggest correction
Creating personal tab
Creating personal tab
You can edit any tab online and save it as your Personal.

You can edit, replace or remove any tab part or add personal notes – all changes will be seen only by you.

Personal tabs can be accessed anytime from any device, even offline.
Learn more »
comments
print report bad tab
6 comments total. Showing first comments.
0 reply
dylan 182 10 Aug 31, 2007 07:59 AM

confusing with all the >, but good tab overall

0 reply
paddy1993 10 Oct 18, 2007 12:44 PM

yea real confusing with the >s but nyway it worked perfectly!!!
4???
nah
5

0 reply
Bassist 101 10 Apr 15, 2008 12:29 PM

100% great just here i like to add the one stroke of the 3 on the verse
G|-----------------------------------------------|
D|-----------------------------------------------|
A|3>3>3>3>------------3>3>3>3>3>3>----------3>3>-| x2
E|---------1>1>-5>-1>3------------1>1>-5>-1>-----|

guest
You may want to rate the tab now too:
select rating
Wanna post a correction for this tab? Suggest correction