Oops, an error
Loading. Please wait.
We have an official Whats My Age Again tab made by UG professional guitarists. Check out the tab »
×
74,346 views 27 this week
6 commentsread comments
1 2 3 4 5
x 15
add to favorites
×
Save as Personal and add changes to this tab that will be seen only by you. Learn more ›
×
You can save this tab as Personal to edit and correct it or add notes. All changes will be seen only by you. Learn more »
launch autoscroll
font size
0
reset
guitar tuner
backing track
0:00
0:00
edit
Autoscroll
slow
fast
+/-
esc
set tempo
stop
Author
Unregistered
Blink 182 - Whats my age again?.
 Tabbed by Jess I_luv_skaters_85@hotmail.com.

K, this is one of my 1st tabs - i aint been playin 4 long.  I fink its rite, u'll just 
have 2 play it and see!
plz email me if i've got any of it wrong!

Bass starts at 0:06


[Intro/Verse]

G|---------------------------------------|
D|---------------------------------------|
A|-2-2-2-2---------4-4-4-4-6-6-6-6-------|   
E|----------2-2-2-2----------------------|(x6)


[Bridge]

G|-----------------------------------------------------------|
D|-----------------------------------------------------------|
A|-2-2-2-2---------4-4-4-4-4-4-4-4-6-6-6-6-6-6-6-6-----------|
E|----------2-2-2-2------------------------------------------|


[Chorus]

G|--------------------|
D|--------------------|
A|---4-4-6-6-2-2------| 
E|-2------------------|(x3)

This comes after the chorus bit above

G|--------------------------------------------------|
D|--------------------------------------------------|
A|---4-4-6-6-6-6-6-6-6-6-4-4-4-4-4-4-4-4-2----------|
E|-2------------------------------------------------|


[Then Verse] again (x3)
[Bridge] (x1)
[Chorus] (x3)
[Bit After] chorus (x1)

[Interlude]
G|------------------------------------------------------------------------|
D|------8-----8---8------6------6---6------4------4---4-----6------6---6--|
A|-6-6--6-6---6---4-4---4-4---4---2-2---2-2---2---4-4--4-4---4------------|  
E|------------------------------------------------------------------------|(x4) (I think)

Then chorus x3
Bit after chorus x1

Do the chorus/bit after it 3 times and you’re done!

            
            
Suggest correction
Creating personal tab
Creating personal tab
You can edit any tab online and save it as your Personal.

You can edit, replace or remove any tab part or add personal notes – all changes will be seen only by you.

Personal tabs can be accessed anytime from any device, even offline.
Learn more »
comments
print report bad tab
6 comments total. Showing first comments.
0 reply
Taborama.com 10 Oct 28, 2005 01:49 AM

NiCe TaBs ! RATE 4 ! some LITTLE mistakes but well done !

-1 reply
AzzoLovesBirdy 10 Sep 15, 2006 01:25 PM

A load of donkey spunk. Look at my verson. (Just submitted it)

0 reply
AzzoLovesBirdy 10 Sep 15, 2006 01:26 PM

All wrong.

guest
Wanna post a correction for this tab? Suggest correction