Oops, an error
Loading. Please wait.
We have an official Whats My Age Again tab made by UG professional guitarists. Check out the tab »
×
3,210 views 120 this week
2 commentsread comments
1 2 3 4 5
x 5
add to favorites
×
Save as Personal and add changes to this tab that will be seen only by you. Learn more ›
×
You can save this tab as Personal to edit and correct it or add notes. All changes will be seen only by you. Learn more »
launch autoscroll
font size
0
reset
guitar tuner
edit
Autoscroll
slow
fast
+/-
esc
set tempo
stop
Artist: Blink 182
Song: What's My Age Again? (live version)
Tabbed by: Muzz

This is the live version, it is played higher than the album
version.

Guitar intro

Verse:
G:---------------------------------|
D:---------------------------------|X5 then play:
A:-4-4-4-4---------6-6-6-6-8-8-8-8-|
E:---------4-4-4-4-----------------|

G:-------------------------------------------------|
D:-------------------------------------------------|
A:-4-4-4-4---------6-6-6-6-6-6-6-6-4-4-4-4-4-4-4-4-|
E:---------4-4-4-4---------------------------------|

Chorus:
G:---------------------|
D:---------------------|X3 then play:
A:---6-6-8-8-4-4-4-4-4-|
E:-4-------------------|

G:------------------------------------------|
D:------------------------------------------|
A:---6-6-8-8-8-8-8-8-8-8-6-6-6-6-6-6-6-6-4>-|
E:-4----------------------------------------|

Verse:
G:---------------------------------|
D:---------------------------------|X3 then play
A:-4-4-4-4---------6-6-6-6-8-8-8-8-|
E:---------4-4-4-4-----------------|

G:-------------------------------------------------|
D:-------------------------------------------------|
A:-4-4-4-4---------6-6-6-6-6-6-6-6-4-4-4-4-4-4-4-4-|
E:---------4-4-4-4---------------------------------|

Chorus

Bridge:
G:------------------------------------------|
A:--10----8----6----8----10----8----6----8--|
D:-8--8--6-6--4-4--6-6--8--8--6-6--4-4--6-6-|
E:------------------------------------------|

G:------------------------------------------|
D:--10----8----6----8----10----8----6----8--|
A:-8--8--6-6--4-4--6-6--8--8--6-6--4-4--6-6-|
E:------------------------------------------|

Chorus X2 then play:

G:---------------------------------------------------|
D:---6-6-8-8-8-8-8-8-8-8-6-6-6-6-6-6-6-6--4>---------|
A:-4----------------------------------------------4>-|
E:---------------------------------------------------|

This sounds right when you play along with it on the Mark,
Tom and Travis show.

            
            
Suggest correction
Creating personal tab
Creating personal tab
You can edit any tab online and save it as your Personal.

You can edit, replace or remove any tab part or add personal notes – all changes will be seen only by you.

Personal tabs can be accessed anytime from any device, even offline.
Learn more »
comments
print report bad tab
2 comments total.
+1 reply
van-halen rock 62 Oct 22, 2006 03:18 AM

Bridge is wrong it should be
Bridge:
G:---------------------|
A:--10----8----6----8--|x1
D:-8--8--6-6--4-4--6-6-|
E:---------------------|

G:--------------------------------|
D:--10--10----8--8---6--6---8--8--|x3
A:-8--8-----6--6---4--4---6--6----|
E:--------------------------------|

+1 reply
MorgzVaughan 10 May 02, 2007 11:52 AM

yeah all sweet and van-halen rock i believe that you are correct in correcting the bridge like that

guest
Wanna post a correction for this tab? Suggest correction