Oops, an error
Loading. Please wait.
We have an official Whats My Age Again tab made by UG professional guitarists. Check out the tab »
×
138,064 views 84 this week
11 commentsread comments
1 2 3 4 5
x 74
add to favorites
×
Save as Personal and add changes to this tab that will be seen only by you. Learn more ›
×
You can save this tab as Personal to edit and correct it or add notes. All changes will be seen only by you. Learn more »
launch autoscroll
font size
0
reset
guitar tuner
backing track
0:00
0:00
edit
Autoscroll
slow
fast
+/-
esc
set tempo
stop
Author
Unregistered
Band: blink 182
Song: What's My Age Again?
Album: Enema of the State
Correction by Josh Mott
Thanks to Matt Nielsen for the original tab. Im just gonna make a few small
yet important corrections.


[Intro/Verse 1]                           Only a part of verse 1
G:-----------------------------------*--------------------------------|
D:-----------------------------------*--------------------------------|
A:-2-2-2-2---------4-4-4-4--6-6-6-6--*-4-4-4-4-4-4-4-4--6-6-6-6-6-6-6-|
E:---------2-2-2-2-------------------*--------------------------------|


Only a part of [verse 2]
G:-----------------------------------|
D:-----------------------------------|
A:-4-4-4-4-4-4-4-4--2-2-2-2-2-2-2-2--|
E:-----------------------------------|


[Chorus] After stars is just part of Chorus 1
G:------------------------------------------------------------------------------|
D:------------------------------------------------------------------------------|
A:---4-4--6-6--2-2-2----4-4--6-6--2-2-2---4-4--6-6--2-2-2---4---6-6-6-6-6-6-6-6-|
E:-2-----------------2------------------2------------------2--------------------|

G:-----------------------|
D:-----------------------|
A:-4-4-4-4-4-4-4-4--2----|
E:-----------------------|


[Bridge] (this is my biggest correction)
G:-----------------------------------------------------|
D:-------8--8-------6--6--------4--4-------6--6--------|
A:-6-6-6--6---4-4-4--4----2-2-2--2----4-4-4----4-------|
E:-----------------------------------------------------|
Listen for the swing


[Last Chorus]
G:--------------------------------------------------------------|
D:--------------------------------------------------------------|
A:-----4-4--6-6--2-----4-4--6-6--2----4-4--6-6-6-6-6-6-6-6------|
E:--2--------------2----------------2---------------------------|

G:-----------------------|
D:-----------------------|
A:-4-4-4-4-4-4-4-4--2~---|
E:-----------------------|



************************************

| ~  Vibrato

************************************

            
            
Suggest correction
Creating personal tab
Creating personal tab
You can edit any tab online and save it as your Personal.

You can edit, replace or remove any tab part or add personal notes – all changes will be seen only by you.

Personal tabs can be accessed anytime from any device, even offline.
Learn more »
comments
print report bad tab
11 comments total. Showing first comments. show 1 bad comment
+4 reply
Daz sg 10 May 14, 2006 08:52 AM

uh no he is right, it is E----2 in the verse.

good tab

-1 reply
AzzoLovesBirdy 10 Sep 15, 2006 01:23 PM

Espixcore. Your right. I'm just submited a tab for this. Some be on its way soon.

guest
Wanna post a correction for this tab? Suggest correction