Oops, an error
Loading. Please wait.

Whats My Age Again Bass Tab

version 6
6,167 views 15 this week
1 commentread comment
1 2 3 4 5
excellent!
x 13
add to favorites
launch autoscroll
font size
0
reset
guitar tuner
Tab Pro tools
  • play this tab
  • loop segment
  • change instrument
  • show fretboard
  • metronome
×
Best way to learn
"Whats My Age Again"
Autoscroll
slow
fast
+/-
esc
set tempo
stop
Contributor
Difficulty
novice
Title: What's My Age Again
Artist: Blink 182
Standard Tuning

PLEASE NOTE: This is the only tab that goes through the entire song.
The Interlude and Outro are not properly tabbed in other versions.
This is not a copy and paste. I spent hours going through every measure.


Tabbed by: Brian Kircher
Tempo = 160
Eighth Notes (Count 1-and-2-and-3-and-4-and)
Mark Hoppus plays with a pick, I do not.
(Whatever suits you)


   Intro (Rest first 4 bars)
G |-------|-------|-------|-------|----------------------------|
D |-------|-------|-------|-------|----------------------------|
A |-------|-------|-------|-------|--2--2--2--2----------------|
E |-------|-------|-------|-------|--------------2--2--2--2----|


----------------------------|----------------------------|
----------------------------|----------------------------|
--4--4--4--4--6--6--6--6----|--2--2--2--2----------------|
----------------------------|--------------2--2--2--2----|

                                       Verse 1
----------------------------|----------------------------|
----------------------------|----------------------------|
--4--4--4--4--6--6--6--6----|--2--2--2--2----------------|
----------------------------|--------------2--2--2--2----|


----------------------------|----------------------------|
----------------------------|----------------------------|
--4--4--4--4--6--6--6--6----|--2--2--2--2----------------|
----------------------------|--------------2--2--2--2----|


----------------------------|----------------------------|
----------------------------|----------------------------|
--4--4--4--4--6--6--6--6----|--2--2--2--2----------------|
----------------------------|--------------2--2--2--2----|


----------------------------|----------------------------|
----------------------------|----------------------------|
--4--4--4--4--6--6--6--6----|--2--2--2--2----------------|
----------------------------|--------------2--2--2--2----|


----------------------------|----------------------------|
----------------------------|----------------------------|
--4--4--4--4--4--4--4--4----|--2--2--2--2--2--2--2--2----|
----------------------------|----------------------------|

 Chorus
(Play on the first and third beats)
----------------------------|----------------------------|
-----4----------------------|----------------------------|
--4-----------4--4----------|--6--6--------2--2--2--2----|
----------------------------|----------------------------|


----------------------------|----------------------------|
-----4----------------------|----------------------------|
--4-----------4--4----------|--6--6--------2--2--2--2----|
----------------------------|----------------------------|


----------------------------|----------------------------|
-----4----------------------|----------------------------|
--4-----------4--4----------|--6--6--------2--2--2--2----|
----------------------------|----------------------------|


----------------------------|----------------------------|
-----4----------------------|----------------------------|
--4-----------4--4----------|--6--6--6--6--6--6--6--6----|
----------------------------|----------------------------|

                              (B5)~ Let Ring for two bars
----------------------------|--4----|----------------|
----------------------------|--4----|----------------|
--4--4--4--4--4--4--4--4----|--2----|----------------|
----------------------------|-------|----------------|

 Verse 2
----------------------------|----------------------------|
----------------------------|----------------------------|
--2--2--2--2----------------|--4--4--4--4--6--6--6--6----|
--------------2--2--2--2----|----------------------------|


----------------------------|----------------------------|
----------------------------|----------------------------|
--2--2--2--2----------------|--4--4--4--4--6--6--6--6----|
--------------2--2--2--2----|----------------------------|


----------------------------|----------------------------|
----------------------------|----------------------------|
--2--2--2--2----------------|--4--4--4--4--6--6--6--6----|
--------------2--2--2--2----|----------------------------|


----------------------------|----------------------------|
----------------------------|----------------------------|
--2--2--2--2----------------|--4--4--4--4--4--4--4--4----|
--------------2--2--2--2----|----------------------------|

                              Chorus
----------------------------|----------------------------|
----------------------------|-----4----------------------|
--2--2--2--2--2--2--2--2----|--4-----------4--4----------|
----------------------------|----------------------------|


----------------------------|----------------------------|
----------------------------|-----4----------------------|
--6--6--------2--2--2--2----|--4-----------4--4----------|
----------------------------|----------------------------|


----------------------------|----------------------------|
----------------------------|-----4----------------------|
--6--6--------2--2--2--2----|--4-----------4--4----------|
----------------------------|----------------------------|


----------------------------|----------------------------|
----------------------------|-----4----------------------|
--6--6--------2--2--2--2----|--4-----------4--4----------|
----------------------------|----------------------------|


----------------------------|----------------------------|
----------------------------|----------------------------|
--6--6--6--6--6--6--6--6----|--4--4--4--4--4--4--4--4----|
----------------------------|----------------------------|

  Interlude: (Still playing eighth notes)
----------------------------|----------------------------|
--------8--------8-----8----|--------6--------6-----6----|
--6--6-----6--6-----6-------|--4--4-----4--4-----4-------|
----------------------------|----------------------------|


----------------------------|----------------------------|
--------4--------4-----4----|--------6--------6-----6----|
--2--2-----2--2-----2-------|--4--4-----4--4-----4-------|
----------------------------|----------------------------|


----------------------------|----------------------------|
--------8--------8-----8----|--------6--------6-----6----|
--6--6-----6--6-----6-------|--4--4-----4--4-----4-------|
----------------------------|----------------------------|


----------------------------|----------------------------|
--------4--------4-----4----|--------6--------6-----6----|
--2--2-----2--2-----2-------|--4--4-----4--4-----4-------|
----------------------------|----------------------------|


----------------------------|----------------------------|
--------8--------8-----8----|--------6--------6-----6----|
--6--6-----6--6-----6-------|--4--4-----4--4-----4-------|
----------------------------|----------------------------|


----------------------------|----------------------------|
--------4--------4-----4----|--------6--------6-----6----|
--2--2-----2--2-----2-------|--4--4-----4--4-----4-------|
----------------------------|----------------------------|


----------------------------|----------------------------|
--------8--------8-----8----|--------6--------6-----6----|
--6--6-----6--6-----6-------|--4--4-----4--4-----4-------|
----------------------------|----------------------------|


----------------------------|----------------------------|
--------4--4--4--4--4--4----|--6--6--6--6--6--6--6--6----|
--2--2-----2--2--2--2--2----|--4--4--4--4--4--4--4--4----|
----------------------------|----------------------------|

 Chorus
----------------------------|----------------------------|
-----4----------------------|----------------------------|
--------------4--4----------|--6--6--------2--2--2--2----|
----------------------------|----------------------------|


----------------------------|----------------------------|
-----4----------------------|----------------------------|
--4-----------4--4----------|--6--6--------2--2--2--2----|
----------------------------|----------------------------|


----------------------------|----------------------------|
-----4----------------------|----------------------------|
--4-----------4--4----------|--6--6--------2--2--2--2----|
----------------------------|----------------------------|


----------------------------|----------------------------|
-----4----------------------|----------------------------|
--4-----------4--4----------|--6--6--6--6--6--6--6--6----|
----------------------------|----------------------------|


----------------------------|----------------------------|
----------------------------|-----4----------------------|
--4--4--4--4--4--4--4--4----|--------------4--4----------|
----------------------------|----------------------------|


----------------------------|----------------------------|
----------------------------|-----4----------------------|
--6--6--------2--2--2--2----|--4-----------4--4----------|
----------------------------|----------------------------|


----------------------------|----------------------------|
----------------------------|-----4----------------------|
--6--6--------2--2--2--2----|--4-----------4--4----------|
----------------------------|----------------------------|


----------------------------|----------------------------|
----------------------------|-----4----------------------|
--6--6--------2--2--2--2----|--4-----------4--4----------|
----------------------------|----------------------------|


----------------------------|----------------------------|
----------------------------|----------------------------|
--6--6--6--6--6--6--6--6----|--4--4--4--4--4--4--4--4----|
----------------------------|----------------------------|


----------------------------|----------------------------|
-----4----------------------|----------------------------|
--------------4--4----------|--6--6--------2--2--2--2----|
----------------------------|----------------------------|


----------------------------|----------------------------|
-----4----------------------|----------------------------|
--4-----------4--4----------|--6--6--------2--2--2--2----|
----------------------------|----------------------------|


----------------------------|----------------------------|
-----4----------------------|----------------------------|
--4-----------4--4----------|--6--6--------2--2--2--2----|
----------------------------|----------------------------|

  Outro
----------------------------|----------------------------|
-----4----------------------|----------------------------|
--4-----------4--4----------|--6--6--6--6--6--6--6--6----|
----------------------------|----------------------------|

                              (B5)-Let ring and fade out
----------------------------|--4----||
----------------------------|--4----||
--4--4--4--4--4--4--4--4----|--2----||
----------------------------|-------||




Legend
L - tied note
x - dead note
h - hammer on/pull off
b - bend
s - slide
~ - vibrato
g - ghost note
> - accentuated note
t - trill
M - palm mute
. - staccato
P - popping (bass)
S - slapping (bass)
+ - tapping
W - wide vibrato
< - fade in
w - whammy bar
= - tremolo picking
v - brush up
^ - brush down
V - pick stroke up
n - pick stroke down
comments
print report bad tab
1 comment total.
+1 reply
Zaqq wrote on February 16 2013, 03:38 pm

Perfect tab. Very easy but fun song!

I want to post or [tab]
guest
You may want to rate the tab now too:
select rating
Please do not post tabs as comments. Select "correction" instead!