Oops, an error
Loading. Please wait.

Wildfire tab

4,642 views 57 this week
2 commentsread comments
1 2 3 4 5
x 13
add to favorites
×
Save as Personal and add changes to this tab that will be seen only by you. Learn more ›
×
You can save this tab as Personal to edit and correct it or add notes. All changes will be seen only by you. Learn more »
launch autoscroll
font size
0
reset
how to read this tab
guitar tuner
edit
Autoscroll
slow
fast
+/-
esc
set tempo
stop
BLINK-182
"Wildfire"

Standard Tuning
Tempo = 180 bpm


[Intro]

e|---------------|---------------|---------------|---------------|
B|---------------|---------------|---------------|---------------|
G|---------------|---------------|---------------|---------------|
D|-----2------2--|-----2------2--|-----2------2--|-----2------2--|
A|-0-0----0-0----|-0-0----0-0----|---------------|---------------|
E|---------------|---------------|-0-0----0-0----|-0-0----0-0----|


e|---------------|---------------|-10p9----12p9----10p9-|----12p9----10p9-10p9-|
B|---------------|---------------|------10------10------|-10------10-----------|
G|---------------|---------------|----------------------|----------------------|
D|-----4------4--|-----4------4--|----------------------|----------------------|
A|-2-2----2-2----|-2-2----2-2----|----------------------|----------------------|
E|---------------|---------------|----------------------|----------------------|


e|--9--9--9-10-10-10--9--9-|-12-12-12-10-10-10--9--9-|
B|-10-10-10-10-10-10-10-10-|-10-10-10-10-10-10-10-10-|
G|-------------------------|-------------------------|
D|-------------------------|-------------------------|
A|-------------------------|-------------------------|
E|-------------------------|-------------------------|


e|--9--9--9-10-10-10--9--9-|--0--0--0--0--0--0--0--0-|
B|-10-10-10-10-10-10-10-10-|-10-10-10-10-10-10-10-10-|
G|-------------------------|--9--9--9--9--9--9--9--9-|
D|-------------------------|-------------------------|
A|-------------------------|-------------------------|
E|-------------------------|-------------------------|


e|--9--9--9-10-10-10--9--9-|-12-12-12-10-10-10--9--9-|
B|-10-10-10-10-10-10-10-10-|-10-10-10-10-10-10-10-10-|
G|-------------------------|-------------------------|
D|-------------------------|-------------------------|
A|-------------------------|-------------------------|
E|-------------------------|-------------------------|


e|-10p9----12p9----10p9-|----12p9----10p9-10p9-|
B|------10------10------|-10------10-----------|
G|----------------------|----------------------|
D|----------------------|----------------------|
A|----------------------|----------------------|
E|----------------------|----------------------|


[Verse]

e|----------------|----------------|----------------|----------------|
B|----------------|----------------|----------------|----------------|
G|----------------|----------------|----------------|----------------|
D|----------------|----------------|----------------|----------------|
A|--7-7-7-7-7-7-7-|--7-7-7-7-7-7-7-|--7-7-7-7-7-7-7-|--7-7-7-7-7-7-7-|
E|--5-5-5-5-5-5-5-|--5-5-5-5-5-5-5-|--5-5-5-5-5-5-5-|--5-5-5-5-5-5-5-|


e|-----------------|-----------------|-----------------|-----------------|
B|-----------------|-----------------|-----------------|-----------------|
G|-----------------|-----------------|-7-7-7-7-7-7-7-7-|-7-7-7-7-7-7-7-7-|
D|-4-4-4-4-4-4-4-4-|-2-2-2-2-2-2-2-2-|-7-7-7-7-7-7-7-7-|-6-6-6-6-6-6-6-6-|
A|-4-4-4-4-4-4-4-4-|-2-2-2-2-2-2-2-2-|-5-5-5-5-5-5-5-5-|-5-5-5-5-5-5-5-5-|
E|-2-2-2-2-2-2-2-2-|-0-0-0-0-0-0-0-0-|-----------------|-----------------|


  Lead Guitar on second repeat
e|-9-0-0-5-0-0-9-0-|-0-5-0-0-7-0-7-0-|-9-0-0-5-0-0-9-0-|-0-5-0-0-7h9p7-0-|
B|-----------------|-----------------|-----------------|-----------------|
G|-----------------|-----------------|-----------------|-----------------|
D|-----------------|-----------------|-----------------|-----------------|
A|-----------------|-----------------|-----------------|-----------------|
E|-----------------|-----------------|-----------------|-----------------|


e|-----------------|-----------------|-----------------|-----------------|
B|-----------------|-----------------|-----------------|-----------------|
G|-----------------|-----------------|-7-7-7-7-7-7-7-7-|-7-7-7-7-7-7-7-7-|
D|-4-4-4-4-4-4-4-4-|-2-2-2-2-2-2-2-2-|-7-7-7-7-7-7-7-7-|-6-6-6-6-6-6-6-6-|
A|-4-4-4-4-4-4-4-4-|-2-2-2-2-2-2-2-2-|-5-5-5-5-5-5-5-5-|-5-5-5-5-5-5-5-5-|
E|-2-2-2-2-2-2-2-2-|-0-0-0-0-0-0-0-0-|-----------------|-----------------|


[Pre-Chorus]

e|---------------|---------------|---------------|---------------|
B|---------------|---------------|---------------|---------------|
G|---------------|---------------|---------------|---------------|
D|-----2------2--|-----2------2--|-----2------2--|-----2------2--|
A|-0-0----0-0----|-0-0----0-0----|---------------|---------------|
E|---------------|---------------|-0-0----0-0----|-0-0----0-0----|


e|---------------|---------------|---------------|---------------|
B|---------------|---------------|---------------|---------------|
G|---------------|---------------|---------------|---------------|
D|-----4------4--|-----4------4--|-----7------7--|-----6------6--|
A|-2-2----2-2----|-2-2----2-2----|-5-5----5-5----|-5-5----5-5----|
E|---------------|---------------|---------------|---------------|


e|-----------------|-----------------|-----------------|-----------------|
B|-----------------|-----------------|-----------------|-----------------|
G|-----------------|-----------------|-----------------|-----------------|
D|-----------------|-----------------|-----------------|-----------------|
A|-7-7-7-7-7-7-7-7-|-7-7-7-7-7-7-7-7-|-2-2-2-2-2-2-2-2-|-2-2-2-2-2-2-2-2-|
E|-5-5-5-5-5-5-5-5-|-5-5-5-5-5-5-5-5-|-0-0-0-0-0-0-0-0-|-0-0-0-0-0-0-0-0-|


e|-----------------|-----------------|-----------------|-----------------|
B|-----------------|-----------------|-----------------|-----------------|
G|-----------------|-----------------|-----------------|-----------------|
D|-4-4-4-4-4-4-4-4-|-4-4-4-4-4-4-4-4-|-7-7-7-7-7-7-7-7-|-7-7-7-7-7-7-7-7-|
A|-2-2-2-2-2-2-2-2-|-2-2-2-2-2-2-2-2-|-5-5-5-5-5-5-5-5-|-5-5-5-5-5-5-5-5-|
E|-----------------|-----------------|-----------------|-----------------|


[Interlude]

e|-----------------------|-----------------------|-----------------------|-----------------------|
B|--14-14-14-14-14-14-14-|--14-14-14-14-14-14-14-|--12-12-12-12-12-12-12-|--12-12-12-12-12-12-12-|
G|-----------------------|-----------------------|-----------------------|-----------------------|
D|--11-11-11-11-11-11-11-|--11-11-11-11-11-11-11-|---9--9--9--9--9--9--9-|---9--9--9--9--9--9--9-|
A|-----------------------|-----------------------|-----------------------|-----------------------|
E|-----------------------|-----------------------|-----------------------|-----------------------|
 |
e|-----------------------|-----------------------|-----------------------|-----------------------|
B|-----------------------|-----------------------|-----------------------|-----------------------|
G|---6--6--6--6--6--6--6-|---6--6--6--6--6--6--6-|-----------------------|-----------------------|
D|---7--7--7--7--7--7--7-|---7--7--7--7--7--7--7-|---2--2--2--2--2--2--2-|---2--2--2--2--2--2--2-|
A|---7--7--7--7--7--7--7-|---7--7--7--7--7--7--7-|---2--2--2--2--2--2--2-|---2--2--2--2--2--2--2-|
E|---5--5--5--5--5--5--5-|---5--5--5--5--5--5--5-|---0--0--0--0--0--0--0-|---0--0--0--0--0--0--0-|


e|-----------------------|-----------------------|-----------------------|-----------------------|
B|--15-15-15-15-15-15-15-|--15-15-15-15-15-15-15-|--10-10-10-10-10-10-10-|--15-15-15-15-14-14-14-|
G|-----------------------|-----------------------|-----------------------|-----------------------|
D|--12-12-12-12-12-12-12-|--12-12-12-12-12-12-12-|---7--7--7--7--7--7--7-|--12-12-12-12-11-11-11-|
A|-----------------------|-----------------------|-----------------------|-----------------------|
E|-----------------------|-----------------------|-----------------------|-----------------------|
 |
e|-----------------------|-----------------------|-----------------------|-----------------------|
B|---3--3--3--3--3--3--3-|---3--3--3--3--3--3--3-|-----------------------|-----------------------|
G|---4--4--4--4--4--4--4-|---4--4--4--4--4--4--4-|---7--7--7--7--7--7--7-|---7--7--7--7--7--7--7-|
D|---4--4--4--4--4--4--4-|---4--4--4--4--4--4--4-|---7--7--7--7--7--7--7-|---6--6--6--6--6--6--6-|
A|---2--2--2--2--2--2--2-|---2--2--2--2--2--2--2-|---5--5--5--5--5--5--5-|---5--5--5--5--5--5--5-|
E|-----------------------|-----------------------|-----------------------|-----------------------|


[Verse 2]

e|----------------|----------------|----------------|----------------|
B|----------------|----------------|----------------|----------------|
G|----------------|----------------|----------------|----------------|
D|----------------|----------------|----------------|----------------|
A|--7-7-7-7-7-7-7-|--7-7-7-7-7-7-7-|--7-7-7-7-7-7-7-|--7-7-7-7-7-7-7-|
E|--5-5-5-5-5-5-5-|--5-5-5-5-5-5-5-|--5-5-5-5-5-5-5-|--5-5-5-5-5-5-5-|


e|-----------------|-----------------|-----------------|---------------------|
B|-----------------|-----------------|-----------------|-9-9-9-9-10-10-10-10-|
G|-----------------|-----------------|-7-7-7-7-7-7-7-7-|---------------------|
D|-4-4-4-4-4-4-4-4-|-2-2-2-2-2-2-2-2-|-7-7-7-7-7-7-7-7-|-6-6-6-6--7--7--7--7-|
A|-4-4-4-4-4-4-4-4-|-2-2-2-2-2-2-2-2-|-5-5-5-5-5-5-5-5-|---------------------|
E|-2-2-2-2-2-2-2-2-|-0-0-0-0-0-0-0-0-|-----------------|---------------------|


[Pre-Chorus 2]

e|---------------|---------------|---------------|---------------|
B|---------------|---------------|---------------|---------------|
G|---------------|---------------|---------------|---------------|
D|-----2------2--|-----2------2--|-----2------2--|-----2------2--|
A|-0-0----0-0----|-0-0----0-0----|---------------|---------------|
E|---------------|---------------|-0-0----0-0----|-0-0----0-0----|


e|---------------|---------------|---------------|---------------|
B|---------------|---------------|---------------|---------------|
G|---------------|---------------|---------------|---------------|
D|-----4------4--|-----4------4--|-----7------7--|-----6------6--|
A|-2-2----2-2----|-2-2----2-2----|-5-5----5-5----|-5-5----5-5----|
E|---------------|---------------|---------------|---------------|


e|-----------------|-----------------|-----------------|-----------------|
B|-----------------|-----------------|-----------------|-----------------|
G|-----------------|-----------------|-----------------|-----------------|
D|-----------------|-----------------|-----------------|-----------------|
A|-7-7-7-7-7-7-7-7-|-7-7-7-7-7-7-7-7-|-2-2-2-2-2-2-2-2-|-2-2-2-2-2-2-2-2-|
E|-5-5-5-5-5-5-5-5-|-5-5-5-5-5-5-5-5-|-0-0-0-0-0-0-0-0-|-0-0-0-0-0-0-0-0-|


e|-----------------|-----------------|-----------------|-----------------|
B|-----------------|-----------------|-----------------|-----------------|
G|-----------------|-----------------|-----------------|-----------------|
D|-4-4-4-4-4-4-4-4-|-4-4-4-4-4-4-4-4-|-7-7-7-7-7-7-7-7-|-7-7-7-7-7-7-7-7-|
A|-2-2-2-2-2-2-2-2-|-2-2-2-2-2-2-2-2-|-5-5-5-5-5-5-5-5-|-5-5-5-5-5-5-5-5-|
E|-----------------|-----------------|-----------------|-----------------|


[Chorus]

e||-----------------------|-----------------------|-----------------------|-----------------------|
B||-----------------------|-----------------------|-----------------------|-----------------------|
G||---6--6--6--6--6--6--6-|---6--6--6--6--6--6--6-|-----------------------|-----------------------|
D||---7--7--7--7--7--7--7-|---7--7--7--7--7--7--7-|---2--2--2--2--2--2--2-|---2--2--2--2--2--2--2-|
A||---7--7--7--7--7--7--7-|---7--7--7--7--7--7--7-|---2--2--2--2--2--2--2-|---2--2--2--2--2--2--2-|
E||---5--5--5--5--5--5--5-|---5--5--5--5--5--5--5-|---0--0--0--0--0--0--0-|---0--0--0--0--0--0--0-|


e|-----------------------|-----------------------|-----------------------|-----------------------||
B|---3--3--3--3--3--3--3-|---3--3--3--3--3--3--3-|-----------------------|-----------------------||
G|---4--4--4--4--4--4--4-|---4--4--4--4--4--4--4-|---7--7--7--7--7--7--7-|---7--7--7--7--7--7--7-||
D|---4--4--4--4--4--4--4-|---4--4--4--4--4--4--4-|---7--7--7--7--7--7--7-|---6--6--6--6--6--6--6-|| x2
A|---2--2--2--2--2--2--2-|---2--2--2--2--2--2--2-|---5--5--5--5--5--5--5-|---5--5--5--5--5--5--5-||
E|-----------------------|-----------------------|-----------------------|-----------------------||


[Bridge]
  Piano arranged for guitar
e||-----------|-------------|-----------|-14----12----|
B||-----------|-12----14----|-----------|-------------|
G||-14--------|-------------|-13--------|-------------|
D||-----------|-------------|-----------|-------------|
A||-----------|-------------|-----------|-------------|
E||-----------|-------------|-----------|-------------|


e|-----------|-------------|-----------|-------------||
B|-----------|-------------|-15--------|-14----12----||
G|-11--------|-13----14----|-----------|-------------||
D|-----------|-------------|-----------|-------------|| x4
A|-----------|-------------|-----------|-------------||
E|-----------|-------------|-----------|-------------||


[Final Chorus]

e||-----------------------|-----------------------|-----------------------|-----------------------|
B||-----------------------|-----------------------|-----------------------|-----------------------|
G||---6--6--6--6--6--6--6-|---6--6--6--6--6--6--6-|-----------------------|-----------------------|
D||---7--7--7--7--7--7--7-|---7--7--7--7--7--7--7-|---2--2--2--2--2--2--2-|---2--2--2--2--2--2--2-|
A||---7--7--7--7--7--7--7-|---7--7--7--7--7--7--7-|---2--2--2--2--2--2--2-|---2--2--2--2--2--2--2-|
E||---5--5--5--5--5--5--5-|---5--5--5--5--5--5--5-|---0--0--0--0--0--0--0-|---0--0--0--0--0--0--0-|


e|-----------------------|-----------------------|-----------------------|-----------------------||
B|---3--3--3--3--3--3--3-|---3--3--3--3--3--3--3-|-----------------------|-----------------------||
G|---4--4--4--4--4--4--4-|---4--4--4--4--4--4--4-|---7--7--7--7--7--7--7-|---7--7--7--7--7--7--7-||
D|---4--4--4--4--4--4--4-|---4--4--4--4--4--4--4-|---7--7--7--7--7--7--7-|---6--6--6--6--6--6--6-|| x2
A|---2--2--2--2--2--2--2-|---2--2--2--2--2--2--2-|---5--5--5--5--5--5--5-|---5--5--5--5--5--5--5-||
E|-----------------------|-----------------------|-----------------------|-----------------------||



*********************************** 
|  h  Hammer-on 
|  p  Pull-off 
***********************************

            
            
Suggest correction
Creating personal tab
Creating personal tab
You can edit any tab online and save it as your Personal.

You can edit, replace or remove any tab part or add personal notes – all changes will be seen only by you.

Personal tabs can be accessed anytime from any device, even offline.
Learn more »
comments
print report bad tab
2 comments total.
+3 reply
dedsa2002 201 May 12, 2017 12:27 PM

You are faster than me :)
Good work, it's just like I hear it.

0 reply
gonzalo93amide 10 Aug 09, 2017 04:43 PM

Great work! love the arrange!

guest
You may want to rate the tab now too:
select rating
Wanna post a correction for this tab? Suggest correction