Oops, an error
Loading. Please wait.

Wishing Well Tab

version 7
version 7

Intro

Interactive

231 views 9 this week
no commentswrite comment
1 2 3 4 5
not so good
x 2
add to favorites
launch autoscroll
font size
0
reset
how to read this tab
guitar tuner
Tab Pro tools
  • play this tab
  • loop segment
  • change instrument
  • show fretboard
  • metronome
Autoscroll
slow
fast
+/-
esc
set tempo
stop
Contributor
Blink-182
Wishing Well
The tuning of this is really awkward, it's just a little bit higher than standard tuning
I'm pretty sure that this tab is 100% correct, but I've been wrong before

Gtr 1 - Tom
Gtr 2 - Bonus (Not used in the live versions)

Intro
Gtr 1 (x4)
e------------------------------------------------------|
B------------------------------------------------------|
G-10-x-9-x-5-5-5-5-5-5-5-5-5-5-x-x-5-5-5-5-x-x-5-5-x-x-|
D-7--x-7-x-3-3-3-3-3-3-3-3-3-3-x-x---------x-x-----x-x-|
A----x---x---------------------x-x-3-3-3-3-x-x-5-5-x-x-|
E------------------------------------------------------|

Gtr 2 (x4)
e-13----10-12-12-13-|
B----13-------------|
G-------------------|
D-------------------|
A-------------------|
E-------------------|

Verse
Gtr 1 (x4)
e------------------------------------------------------|
B------------------------------------------------------|
G-10-x-9-x-5-5-5-5-5-5-5-5-5-5-x-x-5-5-5-5-x-x-5-5-x-x-|
D-7--x-7-x-3-3-3-3-3-3-3-3-3-3-x-x---------x-x-----x-x-|
A----x---x---------------------x-x-3-3-3-3-x-x-5-5-x-x-|
E------------------------------------------------------|

Pre Chorus
Gtr 1 (x8)
e---------------------|
B---------------------|
G-5-5-5-5-5-5-5-5-5-5-|
D---------------------|
A-3-3-3-3-3-3-3-3-3-3-|
E---------------------|

Gtr 2 (x2)
e-------------------------------------------------------------------|
B-------------------------------------------------------------------|
G-9-9-x-x-x-x-10-10-x-x-x-x-x-x-x-x-5-5-x-x-x-x-7-7-x-x-x-x-x-x-x-x-|
D-----x-x-x-x-------x-x-x-x-x-x-x-x-----x-x-x-x-----x-x-x-x-x-x-x-x-|
A-7-7-x-x-x-x-8--8--x-x-x-x-x-x-x-x-3-3-x-x-x-x-5-5-x-x-x-x-x-x-x-x-|
E-------------------------------------------------------------------|

Chorus
Gtr 1 (x8)
e----------------------------------|
B----------------------------------|
G-9-9-9-x-x-10-10-10-x-x-10-10-x-x-|
D-------x-x----------x-x-------x-x-|
A-7-7-7-x-x-8--8--8--x-x-8--8--x-x-|
E----------------------------------|

Gtr2 (x2)
e-----------------|
B-----------------|
G-5~--------------|
D-5~--5~--7~--3~--|
A-3~--5~--7~--3~--|
E-----3~--5~--1~--|

Verse 2 (No Guitar)

Pre Chorus
Gtr 1 (x8)
e---------------------|
B---------------------|
G-5-5-5-5-5-5-5-5-5-5-|
D---------------------|
A-3-3-3-3-3-3-3-3-3-3-|
E---------------------|

Gtr 2 (x2)
e-------------------------------------------------------------------|
B-------------------------------------------------------------------|
G-9-9-x-x-x-x-10-10-x-x-x-x-x-x-x-x-5-5-x-x-x-x-7-7-x-x-x-x-x-x-x-x-|
D-----x-x-x-x-------x-x-x-x-x-x-x-x-----x-x-x-x-----x-x-x-x-x-x-x-x-|
A-7-7-x-x-x-x-8--8--x-x-x-x-x-x-x-x-3-3-x-x-x-x-5-5-x-x-x-x-x-x-x-x-|
E-------------------------------------------------------------------|

Chorus
Gtr 1 (x8)
e----------------------------------|
B----------------------------------|
G-9-9-9-x-x-10-10-10-x-x-10-10-x-x-|
D-------x-x----------x-x-------x-x-|
A-7-7-7-x-x-8--8--8--x-x-8--8--x-x-|
E----------------------------------|

Gtr2 (x2)
e-----------------|
B-----------------|
G-5~--------------|
D-5~--5~--7~--3~--|
A-3~--5~--7~--3~--|
E-----3~--5~--1~--|

Bridge
Gtr 1 (x4)
(Comes in about half way through)
e---------------------|
B---------------------|
G-3-3-3-3-3-3-3-3-3-3-|
D---------------------|
A-5-5-5-5-5-5-5-5-5-5-|
E---------------------|

Gtr 2 (x4)
e-13----10-12-12-13-|
B----13-------------|
G-------------------|
D-------------------|
A-------------------|
E-------------------|

Pre Chorus
Gtr 1 (x8)
e---------------------|
B---------------------|
G-5-5-5-5-5-5-5-5-5-5-|
D---------------------|
A-3-3-3-3-3-3-3-3-3-3-|
E---------------------|

Gtr 2 (x2)
e-------------------------------------------------------------------|
B-------------------------------------------------------------------|
G-9-9-x-x-x-x-10-10-x-x-x-x-x-x-x-x-5-5-x-x-x-x-7-7-x-x-x-x-x-x-x-x-|
D-----x-x-x-x-------x-x-x-x-x-x-x-x-----x-x-x-x-----x-x-x-x-x-x-x-x-|
A-7-7-x-x-x-x-8--8--x-x-x-x-x-x-x-x-3-3-x-x-x-x-5-5-x-x-x-x-x-x-x-x-|
E-------------------------------------------------------------------|

Chorus
Gtr 1 (x8)
e----------------------------------|
B----------------------------------|
G-9-9-9-x-x-10-10-10-x-x-10-10-x-x-|
D-------x-x----------x-x-------x-x-|
A-7-7-7-x-x-8--8--8--x-x-8--8--x-x-|
E----------------------------------|

Gtr2 (x2)
e-----------------|
B-----------------|
G-5~--------------|
D-5~--5~--7~--3~--|
A-3~--5~--7~--3~--|
E-----3~--5~--1~--|

Chorus
Gtr 1 (x2)
e---------------------------------|
B---------------------------------|
G-5-------------------------------|
D-5-(x14)-5-------7-------3-------|
A-3-------5-(x14)-7-(x14)-3-(x14)-|
E---------3-------5-------1-------|

Gtr2 (x2)
e-----------------|
B-----------------|
G-5~--------------|
D-5~--5~--7~--3~--|
A-3~--5~--7~--3~--|
E-----3~--5~--1~--|

Outro
Gtr 1
e--------------------------------------------------|
B--------------------------------------------------|
G-10-x-9-x-5-5-5-5-5-5-5-5-5-5-x-x-5-5-5-5-x-x-5-5-|
D-7--x-7-x-3-3-3-3-3-3-3-3-3-3-x-x---------x-x-----|
A----x---x---------------------x-x-3-3-3-3-x-x-5-5-|
E--------------------------------------------------|
comments
We did not receive enough feedback on this tab! Please rate:
print report bad tab
1 2 3 4 5
I want to post or [tab]
guest
You may want to rate the tab now too:
select rating
Please do not post tabs as comments. Select "correction" instead!