Oops, an error
Loading. Please wait.

Below The Sliding Doors chords

25 views 1 this week
no commentswrite comment
1 2 3 4 5
3 more votes to show rating
add to favorites
×
Save as Personal and add changes to this tab that will be seen only by you. Learn more ›
×
You can save this tab as Personal to edit and correct it or add notes. All changes will be seen only by you. Learn more »
launch autoscroll
font size
0
reset
transpose
0
reset
simplify chords
display chords
guitar tuner
edit
Autoscroll
slow
fast
+/-
esc
set tempo
stop
About this tab version
Simple chord version from the studio album August Everywhere (1999). Was this info helpful? Yes No
Strumming
There is no strumming pattern for this song yet. and get +5 IQ
[Chords]
Bsus2 x24422
Dmaj/A 554222
G6 320030
E7 022134
Emaj7 022140
E 022100
A x02220
D xx0232
G 320033
Bm7 x20232
F#m 244222
Dm xx0231
F 133211
F# 244322

[Intro]
Bsus2      Dmaj7/A      G6      E7      G6      Emaj7

[Verse 1]
Bsus2                Dmaj7/A 
     Time is up, the money's gone
G6                           E7
     A windless moon is your only throne
G6                      Emaj7
     A last walk in the garden
Bsus2                        Dmaj7/A
     You'd like to think you know no shame
G6                        E7
     Select a worthy heir to your name
G6                     Emaj7
     Miss one and it's end of game

[Chorus]
E       A                     D
We walk under the clouds of a sunny day
G                          Bm7
Words are on the run anyway
E         A                          D
Be safe below the sliding doors of a modern sham
G                                 Bm7
Say the words that we'll never say

[Verse 2]
Bsus2              Dmaj7/A
     Swiss time is on the move
G6                      E7
     No precision on an icy groove
G6                      Emaj7
     A valentine in the window
Bsus2               Dmaj7/A
     Blow forth and feed your eyes
G6                        E7
     No incision, she's a satellite
G6                      Emaj7
     A dull kiss in the morning

[Chorus]
E       A                     D
We walk under the clouds of a sunny day
G                          Bm7
Words are on the run anyway
E         A                          D
Be safe below the sliding doors of a modern sham
G                                 Bm7
Say the words that we'll never say

[Bridge]
F#m                D
Aaaaah     Buh-Buh-Buhhhhh
F#m                Dm         F
Aaaaah     Buh-Buh-Buhhhhhh   Aaaaah
F                  F#
Aaaaah         Buh-Buhhhhhh   Buhhhh

[Verse 3]
e|------------------------|2-----------------------|------------------------------|4-----------------------|
B|4-----------------------|2-----------------------|3-----------------------------|3-----------------------|
G|4-----------------------|------------------------|4-----------------------------|------------------------|
D|------------------------|------------------------|------------------------------|------------------------|
A|------------------------|------------------------|------------------------------|------------------------|
E|------------------------|------------------------|------------------------------|------------------------|
        This is where   we say  what's wrong              Smooth the edges with an iron tongue

e|3------------------------|4-----------4-----------|4-----------4-----------|4-----------4-----------|
B|3------------------------|4-----------4-----------|4-----------4-----------|4-----------4-----------|
G|-------------------------|------------------------|------------------------|------------------------|
D|-------------------------|------2-----------2-----|------2-----------2-----|------2-----------2-----|
A|-------------------------|------------------------|------------------------|------------------------|
E|-------------------------|------------------------|------------------------|------------------------|
        Peruse the list and find  the song

e|4-----------4-----------|
B|4-----------4-----------|
G|------------------------|
D|------2-----------2-----|
A|------------------------|
E|------------------------|
         (Buh-Buh-Buh  Buhhhhhhh...)

Bsus2            Dmaj7/A
     Same day we find a plain (and you wanna say...)
G6                     E7
     These pills never twice the same (and you wanna say...)
G6                         Emaj7
     A shallow walk in the ocean    {4 measure crescendo begins on Emaj7 chord}

[Chorus]
E       A                     D
We walk under the clouds of a sunny day
G                          Bm7
Words are on the run anyway
E         A                          D
Be safe below the sliding doors of a modern sham
G                                 Bm7
Say the words that we'll never say

[Outro]
Bsus2         Dmaj7          G6
                    (And you wanna say...)    
E7            G6             Emaj7
     (And you wanna say...)

{Repeat with fade}

            
            
Suggest correction
Creating personal tab
Creating personal tab
You can edit any tab online and save it as your Personal.

You can edit, replace or remove any tab part or add personal notes – all changes will be seen only by you.

Personal tabs can be accessed anytime from any device, even offline.
Learn more »
Give kudos to tab author, rate the tab!
1 2 3 4 5
comments
print report bad tab
guest
You may want to rate the tab now too:
select rating
Wanna post a correction for this tab? Suggest correction