Oops, an error
Loading. Please wait.

Bullet For Christmas Tab

264 views 1 this week
no commentswrite comment
1 2 3 4 5
3 more votes to show rating
add to favorites
launch autoscroll
font size
0
reset
how to read this tab
guitar tuner
Autoscroll
slow
fast
+/-
esc
set tempo
stop
Help us to improve Ultimate-Guitar.com Take our survey!
×
Author
BLISS – Bullet For Christmas
www.myspace.com/blissmyspace
Tuning:Drop D

Intro 
E|----------------------------------------------|
B|----------------------------------------------|
G|----------------------------------------------|
D|-5-5-8-7---0-8-8-7-8-7----3-3-5-3--0-1-1-3----|
A|-5-5-------0-8-8----------3-3---3--0-1-1------|
D|-5-5-------0-8-8----------3-3---3--0-1-1------|

X 2

Verse 1 
E|--------------------------------------------------------|
B|--------------------------------------------------------|
G|------7-7-7-7--5-5-5-5-----------7-7-7-7--5-5-5-5-------|
D|-5-5--------------------7-8--5-5-------------------7-8--|
A|-5-5-------------------------5-5------------------------|
D|-5-5-------------------------5-5------------------------|
 
E|--------------------------------------------------------------|
B|--------------------------------------------------------------|
G|-----10-10-10-10--8-8-8-8--7-7-----10-10-10-10--8-8-8-8--7-7--|
D|-8-8---------------------------8-8----------------------------|
A|-8-8---------------------------8-8----------------------------|
D|-8-8---------------------------8-8----------------------------|

X 2

Prechorus 
E|----------------------------------------------------------------------|
B|----------------------------------------------------------------------|
G|----------------------------------------------------------------------|
D|-10-10-10---10-10-10-----5-5-5--5-5-5---10-10-10---10-10-10---8-8-10--|
A|-8--8--8----8--8--8------5-5-5--5-5-5---8--8--8----8--8--8----8-8-8---|
D|-6--6--6----6--6--6------5-5-5--5-5-5---6--6--6----6--6--6----8-8-7---|

Chorus 
E|---------------------------------------------------|
B|---------------------------------------------------|
G|---------------------------------------------------|
D|-5-5-5-5-5---8-8-10-10-10--3-3-5-5-3---1-1-3-3-1---|
A|-5-5-5-5-5---8-8-8--8--8---3-3-3-3-3---1-1-1-1-1---|
D|-5-5-5-5-5---8-8-8--8--8---3-3-3-3-3---1-1-1-1-1---|

X 2



Verse 2
E|---------------------------------------------------------------------------|
B|---------------------------------------------------------------------------|
G|---------------------------------------------------------------------------|
D|-5-5-7-8--5-5-8-7--5-5-7-8---8-8-7-5--8-8-7-8--8-8-8-7--8-8-7-8--8-8-7-8---|
A|-5-5------5-5------5-5----------------8-8------8-8------8-8----------------|
D|-5-5------5-5------5-5----------------8-8------8-8------8-8----------------|

E|--------------------------------------------------------------------------------|
B|--------------------------------------------------------------------------------|
G|----------------------------------------------------------------------------10--|
D|-5-5-7-8--5-5-8-7--5-5-7-8---5-5-7-8--8-8-7-8--8-8-8-7--8-8-7-8---8-8-7-8---8---|
A|-5-5------5-5------5-5----------------8-8------8-8------8-8-----------------6---|
D|-5-5------5-5------5-5----------------8-8------8-8------8-8---------------------|

Chorus 
E|---------------------------------------------------|
B|---------------------------------------------------|
G|---------------------------------------------------|
D|-5-5-5-5-5---8-8-10-10-10--3-3-5-5-3---1-1-3-3-1---|
A|-5-5-5-5-5---8-8-8--8--8---3-3-3-3-3---1-1-1-1-1---|
D|-5-5-5-5-5---8-8-8--8--8---3-3-3-3-3---1-1-1-1-1---|

X 2

Bridge
E|----------------------------------------------|
B|----------------------------------------------|
G|----------------------------------------------|
D|-5-5-8-7---0-8-8-7-8-7----3-3-5-3--0-1-1-3----|
A|-5-5-------0-8-8----------3-3---3--0-1-1------|
D|-5-5-------0-8-8----------3-3---3--0-1-1------|
X 2

Verse 1 
E|--------------------------------------------------------|
B|--------------------------------------------------------|
G|------7-7-7-7--5-5-5-5-----------7-7-7-7--5-5-5-5-------|
D|-5-5--------------------7-8--5-5-------------------7-8--|
A|-5-5-------------------------5-5------------------------|
D|-5-5-------------------------5-5------------------------|
 
E|--------------------------------------------------------------|
B|--------------------------------------------------------------|
G|-----10-10-10-10--8-8-8-8--7-7-----10-10-10-10--8-8-8-8--7-7--|
D|-8-8---------------------------8-8----------------------------|
A|-8-8---------------------------8-8----------------------------|
D|-8-8---------------------------8-8----------------------------|

X 2

Prechorus 
E|--------------------------------------------------------------|
B|--------------------------------------------------------------|
G|--------------------------------------------------------------|
D|-1-1-1--1-1-3--5-5-5--7-8-7--3-5-3--1-1-1--1-1-3--8-8-7-7-7---|
A|-1-1-1--1-1-3--5-5-5--7-8-7--3-5-3--1-1-1--1-1-3--5-5-5-5-5---|
D|-1-1-1--1-1-3--5-5-5--7-8-7--3-5-3--1-1-1--1-1-3--5-5-5-5-5---|

E|------------------------------------------------------------|
B|------------------------------------------------------------|
G|------------------------------------------------------------|
D|-1-1-1--1-1-3--5-5-5--7-8-7--3-5-3--1-1-1--1-1-1--8-8-10----|
A|-1-1-1--1-1-3--5-5-5--7-8-7--3-5-3--1-1-1--1-1-1--8-8-8-----|
D|-1-1-1--1-1-3--5-5-5--7-8-7--3-5-3--1-1-1--1-1-1--8-8-7-----|

Chorus 
E|---------------------------------------------------|
B|---------------------------------------------------|
G|---------------------------------------------------|
D|-5-5-5-5-5---8-8-10-10-10--3-3-5-5-3---1-1-3-3-1---|
A|-5-5-5-5-5---8-8-8--8--8---3-3-3-3-3---1-1-1-1-1---|
D|-5-5-5-5-5---8-8-8--8--8---3-3-3-3-3---1-1-1-1-1---|


X 2

Outro 
E|-------------------------------------|
B|-------------------------------------|
G|-------------------------------------|
D|-5-5-7-8--5-5-8-7-8-8-7-8--1-1-1-1---|
A|-5-5------5-5-----8-8------1-1-1-1---|
D|-5-5------5-5-----8-8------1-1-1-1---|

X 4


Suggest correction
Give kudos to tab author, rate the tab!
1 2 3 4 5
comments
print report bad tab
guest
You may want to rate the tab now too:
select rating
Wanna post a correction for this tab? Suggest correction