Oops, an error
Loading. Please wait.

Fake Hero Tab

106 views 1 this week
no commentswrite comment
1 2 3 4 5
please rate
add to favorites
launch autoscroll
font size
0
reset
how to read this tab
guitar tuner
Autoscroll
slow
fast
+/-
esc
set tempo
stop
Help us to improve Ultimate-Guitar.com Take our survey!
×
Contributor
Dudenia 42
BLISS – Fake Hero
www.myspace.com/blissmyspace
Tuning:Drop D

Intro 
E|------------------------------------------------------------|
B|------------------------------------------------------------|
G|-9-9-13-13-7-7---7-7-9-9-7-9--9-9-13-13-7-7-----------------|
D|----------------------------------------------7-5-0-5-7-2---|
A|-7-7-11-11-5-5---5-5-7-7-5-7--7-7-11-11-5-5---7-5-0-5-7-2---|
D|----------------------------------------------7-5-0-5-7-2---|

E|------------------------------------------------------------|
B|------------------------------------------------------------|
G|-9-9-13-13-7-7---7-7-9-9-7-9--9-9-13-13-7-7-----------------|
D|----------------------------------------------7-5-0-5-7-7---|
A|-7-7-11-11-5-5---5-5-7-7-5-7--7-7-11-11-5-5---7-5-0-5-7-7---|
D|----------------------------------------------7-5-0-5-7-7---|

Verse
E|--------------------------------------------------|
B|--------------------------------------------------|
G|--------------------5-2---------------------5-2---|
D|--2-2---2-2---2-2---5-2---2-2---2-2---2-2---5-2---|
A|--2-2---2-2---2-2---3-0---2-2---2-2---2-2---3-0---|
D|--2-2---2-2---2-2---------2-2---2-2---2-2---------|

E|-----5-5-4-4-1-0-----5-5-4-4-1-0-----5-5-4-4-1-0--------|
B|--------------------------------------------------------|
G|--------------------------------------------------5-2---|
D|-2-2--------------2-2-------------2-2-------------5-2---|
A|-2-2--------------2-2-------------2-2-------------3-0---|
D|-2-2--------------2-2-------------2-2-------------------|

E|-----5-5-4-4-1-0-----5-5-4-4-1-0-----5-5-4-4-1-0--------|
B|--------------------------------------------------------|
G|--------------------------------------------------5-2---|
D|-2-2--------------2-2-------------2-2-------------5-2---|
A|-2-2--------------2-2-------------2-2-------------3-0---|
D|-2-2--------------2-2-------------2-2-------------------|

E|-------------------------------7---------------------------|
B|---------7----9---9-----7---------------7----9---9-----7---|
G|-----9----9----------7----7----------9----9----------7-----|
D|---9--------------------------------9----------------------|
A|-7----7----7---7----7----7----7----7----7---7-----7--------|
D|-----------------------------------------------------------|



Chorus 
E|------------------------------------------------------|
B|------------------------------------------------------|
G|------------------------------------------------------|
D|-4-4-4-4-4-4--6-6-6-6-6-6--5-5-5-5-5-5--0-0-0-0-0-0---|
A|-2-2-2-2-2-2--2-2-2-2-2-2--5-5-5-5-5-5--0-0-0-0-0-0---|
D|-2-2-2-2-2-2--2-2-2-2-2-2--5-5-5-5-5-5--0-0-0-0-0-0---|

X 2

Bridge
E|----------------------------------------------------|
B|----------------------------------------------------|
G|------9----------------------9--9-9-13-13-7-7-------|
D|-2-2--9--7-5-0-5-7-7-0--2-2--9------------------5---|
A|-2-2--7--7-5-0-5-7-7-0--2-2--7--7-7-11-11-5-5---5---|
D|-2-2-----7-5-0-5-7-7-0--2-2---------------------5---|

E|------------------------------------------|
B|------------------------------------------|
G|------9----------------------9------------|
D|-2-2--9--7-5-0-5-7-7-0--2-2--9--2-x-2-2---|
A|-2-2--7--7-5-0-5-7-7-0--2-2--7--2-x-2-2---|
D|-2-2-----7-5-0-5-7-7-0--2-2-----2-x-2-2---|

Verse
E|--------------------------------------------------|
B|--------------------------------------------------|
G|--------------------5-2---------------------5-2---|
D|--2-2---2-2---2-2---5-2---2-2---2-2---2-2---5-2---|
A|--2-2---2-2---2-2---3-0---2-2---2-2---2-2---3-0---|
D|--2-2---2-2---2-2---------2-2---2-2---2-2---------|

E|-----5-5-4-4-1-0-----5-5-4-4-1-0-----5-5-4-4-1-0--------|
B|--------------------------------------------------------|
G|--------------------------------------------------5-2---|
D|-2-2--------------2-2-------------2-2-------------5-2---|
A|-2-2--------------2-2-------------2-2-------------3-0---|
D|-2-2--------------2-2-------------2-2-------------------|

E|-----5-5-4-4-1-0-----5-5-4-4-1-0-----5-5-4-4-1-0--------|
B|--------------------------------------------------------|
G|--------------------------------------------------5-2---|
D|-2-2--------------2-2-------------2-2-------------5-2---|
A|-2-2--------------2-2-------------2-2-------------3-0---|
D|-2-2--------------2-2-------------2-2-------------------|


E|-------------------------------7---------------------------|
B|---------7----9---9-----7---------------7----9---9-----7---|
G|-----9----9----------7----7----------9----9----------7-----|
D|---9--------------------------------9----------------------|
A|-7----7----7---7----7----7----7----7----7---7-----7--------|
D|-----------------------------------------------------------|



Chorus 
E|------------------------------------------------------|
B|------------------------------------------------------|
G|------------------------------------------------------|
D|-4-4-4-4-4-4--6-6-6-6-6-6--5-5-5-5-5-5--0-0-0-0-0-0---|
A|-2-2-2-2-2-2--2-2-2-2-2-2--5-5-5-5-5-5--0-0-0-0-0-0---|
D|-2-2-2-2-2-2--2-2-2-2-2-2--5-5-5-5-5-5--0-0-0-0-0-0---|

X 2

Bridge
E|----------------------------------------------------------|
B|----------------------------------------------------------|
G|----------------------------------------------------------|
D|----------------------------------------------------------|
A|---------5---------5-5-5-4-----------4----------4-4-4-3---|
D|-2-2-5-2---2-2-5-2-----------2-2-5-2---2-2-5-2------------|

E|--------------------------------------------------|
B|--------------------------------------------------|
G|----------7-----------7-7-7-6-----------6-6-6-5---|
D|-2-2-5-2--7--2-2-5-2--7-7-7-6--2-2-5-2--6-6-6-5---|
A|-2-2-5-2--5--2-2-5-2--5-5-5-4--2-2-5-2--4-4-4-3---|
D|-2-2-5-2-----2-2-5-2-----------2-2-5-2------------|

X 3

E|-------------------------|
B|-------------------------|
G|-------------------------|
D|-2-2---5-5---2-2---5-5---|
A|-2-2---5-5---2-2---5-5---|
D|-2-2---5-5---2-2---5-5---|


Chorus 
E|------------------------------------------------------|
B|------------------------------------------------------|
G|------------------------------------------------------|
D|-4-4-4-4-4-4--6-6-6-6-6-6--5-5-5-5-5-5--0-0-0-0-0-0---|
A|-2-2-2-2-2-2--2-2-2-2-2-2--5-5-5-5-5-5--0-0-0-0-0-0---|
D|-2-2-2-2-2-2--2-2-2-2-2-2--5-5-5-5-5-5--0-0-0-0-0-0---|

X 2

E|------------------------------------------------------|
B|------------------------------------------------------|
G|------------------------------------------------------|
D|-4-0-4-0-4-4--6-6-6-6-6-6--5-5-5-5-5-5--0-0-0-0-0-0---|
A|-2-0-2-0-2-2--2-2-2-2-2-2--5-5-5-5-5-5--0-0-0-0-0-0---|
D|-2-0-2-0-2-2--2-2-2-2-2-2--5-5-5-5-5-5--0-0-0-0-0-0---|

X 2


Outro 
E|------------------------------------------------------|
B|------------------------------------------------------|
G|------9----------------------9----9-9-13-13-7-7-------|
D|-2-2--9--7-5-0-5-7-7-0--2-2--9--------------------5---|
A|-2-2--7--7-5-0-5-7-7-0--2-2--7----7-7-11-11-5-5---5---|
D|-2-2-----7-5-0-5-7-7-0--2-2-----------------------5---|

E|----------------------------------------------|
B|----------------------------------------------|
G|------9-9-9--9-x-9-9---------9-9-9------------|
D|-2-2--9-9-9--9-x-9-9-5--2-2--9-9-9--2-x-2-2---|
A|-2-2--7-7-7--7-x-7-7-5--2-2--7-7-7--2-x-2-2---|
D|-2-2-----------------5--2-2---------2-x-2-2---|

Suggest correction new What's this?
You can suggest a correction to this tab. Community and Mods will review your correction and vote to approve or reject it.
comments
We did not receive enough feedback on this tab! Please rate:
print report bad tab
1 2 3 4 5
guest
You may want to rate the tab now too:
select rating
Please do not post tabs as comments. Select "correction" instead!