Oops, an error
Loading. Please wait.

Dopamine Tab

118 views 6 this week
no commentswrite comment
1 2 3 4 5
3 more votes to show rating
add to favorites
launch autoscroll
font size
0
reset
how to read this tab
guitar tuner
Autoscroll
slow
fast
+/-
esc
set tempo
stop
Help us to improve Ultimate-Guitar.com Take our survey!
×
Author
Tuning
D# G# C# F# A# D#
Bliss N Eso
Dopamine
Eb Tuning

[Intro]
     G        Am   Em
Eb|---3--------5---0-------------|
Bb|---3--------5---0-------------|
Gb|---4--------5---0-------------|
Db|---5--------7---2-------------|
Ab|---5--------7---2-------------|
Eb|---3--------5---0-------------|

in standard tuning
Capo 1
   F         Gm    Dm
e|--1---------3-----1----------------------|
B|--1---------3-----3----------------------|
G|--2---------3-----2----------------------|
D|--3---------5-----0----------------------|
A|--3---------5-----0----------------------|
E|--1---------3----------------------------|

[Verses]
Eb|--------------------------------|
Bb|--------------------------------|
Gb|--------------------------------|
Db|-----17--17-16--14-14-----------|
Ab|--------------------------------|
Eb|--------------------------------|

in standard tuning
Capo 1

e|------------------------------|
B|------------------------------|
G|------------------------------|
D|---15---15-14---12-12---------|
A|------------------------------|
E|------------------------------|

-------------------------------------------------------------------------------------------------------

[Intro]    
Eb|---3--------5---0-------------|
Bb|---3--------5---0-------------|
Gb|---4--------5---0-------------|
Db|---5--------7---2-------------| x1
Ab|---5--------7---2-------------|
Eb|---3--------5---0-------------|

[Hook: Thief]
Eb|---3--------5---0-------------|
Bb|---3--------5---0-------------|
Gb|---4--------5---0-------------|
Db|---5--------7---2-------------| x4
Ab|---5--------7---2-------------|
Eb|---3--------5---0-------------|

When I lost my way
When I'm on my knees
When I'm coming down
You're my dopamine (do—do—dopamine)
When there's no way out
When I don't believe
When I'm coming down
You're my dopamine (do—do—dopamine)

[Verse 1: Bliss]
Eb|--------------------------------|
Bb|--------------------------------|
Gb|--------------------------------|
Db|-----17--17-16--14-14-----------| x7
Ab|--------------------------------|
Eb|--------------------------------|

Man, I been around the rock a couple times
Read the details in-between a bunch of lines
The Devil, but fuck it, tonight the moon is full
And I'm out with my wolves, we all dressed in wool
Slow-motion through this giant masquerade ball
Everybody got their mask on and face off
Yeah, you're damn right we having fun tonight
I got shit to do, but I've had a few so fuck it right
I live a year round festival season
All it takes is a few drinks and I'm texting my demons (hello)
Slow dancin' with destiny on this tightrope
I hope I make it home today before the light shows
And I know I said I wouldn't do this again
But baby, you're my only friend

[Hook: Thief]
Eb|---3--------5---0-------------|
Bb|---3--------5---0-------------|
Gb|---4--------5---0-------------|
Db|---5--------7---2-------------| x4
Ab|---5--------7---2-------------|
Eb|---3--------5---0-------------|

When I lost my way
When I'm on my knees
When I'm coming down
You're my dopamine (do—do—dopamine)
When there's no way out
When I don't believe
When I'm coming down
You're my dopamine (do—do—dopamine)
When I'm falling, falling, falling
You're the drug I need
When I'm falling, falling, falling
You're my dopamine

[Verse 2: Eso]
Eb|--------------------------------|
Bb|--------------------------------|
Gb|--------------------------------|
Db|-----17--17-16--14-14-----------| x7
Ab|--------------------------------|
Eb|--------------------------------|

You see those dark clouds covering my conscience?
I need help, I'm in love with my own monsters
I did it again, but never is it by mistake
Until you're wide awake and life feels like a tidal wave
Night and day I used to welcome the high
That moment, [?] sky
It's like, "They want the truth," well fuck it man, I'll be honest
You may see a happy chap, but not a recovering alcoholic
You can see I'm blessed, but not me being self-abusive
You can see my success, but not my wife that got me through it
And like a ray of light, I see my baby boy
You make your mother glow, you bring me crazy joy
Too many reasons to love life
Watching the sunrise in my son's eyes

[Hook: Thief] 
Eb|---3--------5---0-------------|
Bb|---3--------5---0-------------|
Gb|---4--------5---0-------------|
Db|---5--------7---2-------------| x4
Ab|---5--------7---2-------------|
Eb|---3--------5---0-------------|

When I lost my way
When I'm on my knees
When I'm coming down
You're my dopamine (do—do—dopamine)
When there's no way out
When I don't believe
When I'm coming down
You're my dopamine (do—do—dopamine)
When I'm falling, falling, falling
You're the drug I need
When I'm falling, falling, falling
You're my dopamine

[Hook: Thief] 
Eb|---3--------5---0-------------|
Bb|---3--------5---0-------------|
Gb|---4--------5---0-------------|
Db|---5--------7---2-------------| x4
Ab|---5--------7---2-------------|
Eb|---3--------5---0-------------|

When I lost my way
When I'm on my knees
When I'm coming down
You're my dopamine (do—do—dopamine)
When there's no way out
When I don't believe
When I'm coming down
You're my dopamine (do—do—dopamine)
When I'm falling, falling, falling
You're the drug I need
When I'm falling, falling, falling
You're my dopamine
Suggest correction
Give kudos to tab author, rate the tab!
1 2 3 4 5
comments
print report bad tab
guest
You may want to rate the tab now too:
select rating
Wanna post a correction for this tab? Suggest correction