Oops, an error
Loading. Please wait.

Reflections tab

version 1
version 1

Whole song

12,199 views 1 this week
1 commentread comment
1 2 3 4 5
2 more votes to show rating
add to favorites
×
Save as Personal and add changes to this tab that will be seen only by you. Learn more ›
×
You can save this tab as Personal to edit and correct it or add notes. All changes will be seen only by you. Learn more »
launch autoscroll
font size
0
reset
how to read this tab
guitar tuner
edit
Autoscroll
slow
fast
+/-
esc
set tempo
stop
Tuning: DADGBe

Chords
e----------------------------------------------|
B----------------------------------------------|
G----------------------------------------------|
D--------5------7--------10------------------- |
A--------5------7--------10--------------------|
D--------5------7--------10--------------------|

I THINK the picking part near the end is SOMETHING like this... I'm not too sure though...
Its not too hard to figure out by ear.. but i ceebs

e ---------------------------------------------------------------------|
B --10 -10 -10-10-10-10-10-//-----8-8-8-8-8-8-8------6-6-6-6-6-6-6-----|
G ---------------------------------------------------------------------|
D ---------------------------------------------------------------------|
A ---------------------------------------------------------------------|
D ---------------------------------------------------------------------|

Hope its ok (:

Simone.x

            
            
Suggest correction
Creating personal tab
Creating personal tab
You can edit any tab online and save it as your Personal.

You can edit, replace or remove any tab part or add personal notes – all changes will be seen only by you.

Personal tabs can be accessed anytime from any device, even offline.
Learn more »
Give kudos to tab author, rate the tab!
1 2 3 4 5
comments
print report bad tab
1 comment total.
0 reply
the sk8r 10 Aug 04, 2010 04:34 AM

um ive never tabbed anything so ill just write the chords of what i think they are from E to e not drop d
e --0------3------0----
b --1------3------1----
g --2------4------0----
d --2------5------2----
a --0------5------3----
E --x------3------x----

guest
Wanna post a correction for this tab? Suggest correction