Oops, an error
Loading. Please wait.

Five Cellars Below Acoustic tab

37 views 1 this week
no commentswrite comment
1 2 3 4 5
3 more votes to show rating
add to favorites
×
Save as Personal and add changes to this tab that will be seen only by you. Learn more ›
×
You can save this tab as Personal to edit and correct it or add notes. All changes will be seen only by you. Learn more »
launch autoscroll
font size
0
reset
how to read this tab
guitar tuner
edit
Autoscroll
slow
fast
+/-
esc
set tempo
stop
Blitzkid
"Five Cellars Below" (Acoustic Version)

Based on the performance seen here: https://www.youtube.com/watch?v=04aK08fUN8Y

Tuning = Half-Step Down
Tempo = 150 bpm


[Intro]
    G                 Bm                A              Asus4   A
Eb|-----------------|-----------------|--------------|-----------------|
Bb|-3-3-3-3---3-3-3-|-7-7-7-7---7-7-7-|--------------|-----------------|
Gb|-0-0-0-0---0-0-0-|-7-7-7-7---7-7-7-|-6-6-6-6---6--|-7---7---6---6-6-|
Db|-0-0-0-0---0-0-0-|-0-0-0-0---0-0-0-|-7-7-7-7---7--|-7---7---7---7-7-| x4
Ab|-2-2-2-2---2-2-2-|-x-x-x-x---x-x-x-|-0-0-0-0---0--|-0---0---0---0-0-|
Eb|-3-3-3-3---3-3-3-|-7-7-7-7---7-7-7-|--------------|-----------------|


    G       Bm        A     Asus4 A
Eb|-----------------|---------------|
Bb|-3-3-3-3-7-7-7-7-|---------------|
Gb|-0-0-0-0-7-7-7-7-|-6-6-6-7--6--6-|
Db|-0-0-0-0-0-0-0-0-|-7-7-7-7--7--7-| x4
Ab|-2-2-2-2-x-x-x-x-|-0-0-0-0--0--0-|
Eb|-3-3-3-3-7-7-7-7-|---------------|


[Verse]
    G       Bm        A     Asus4 A
Eb|-----------------|---------------|
Bb|-3-3-3-3-7-7-7-7-|---------------|
Gb|-0-0-0-0-7-7-7-7-|-6-6-6-7--6--6-|
Db|-0-0-0-0-0-0-0-0-|-7-7-7-7--7--7-| x8
Ab|-2-2-2-2-x-x-x-x-|-0-0-0-0--0--0-|
Eb|-3-3-3-3-7-7-7-7-|---------------|


[Chorus]
    D                 A                 Bm                G
Eb|-----------------|-----------------|-----------------|-----------------|
Bb|-7-7-7-7-7-7-7-7-|-----------------|-7-7-7-7-7-7-7-7-|-3-3-3-3-3-3-3-3-|
Gb|-7-7-7-7-7-7-7-7-|-6-6-6-6-6-6-6-6-|-7-7-7-7-7-7-7-7-|-0-0-0-0-0-0-0-0-|
Db|-7-7-7-7-7-7-7-7-|-7-7-7-7-7-7-7-7-|-0-0-0-0-0-0-0-0-|-0-0-0-0-0-0-0-0-|
Ab|-5-5-5-5-5-5-5-5-|-7-7-7-7-7-7-7-7-|-x-x-x-x-x-x-x-x-|-2-2-2-2-2-2-2-2-|
Eb|-----------------|-5-5-5-5-5-5-5-5-|-7-7-7-7-7-7-7-7-|-3-3-3-3-3-3-3-3-|

    D                 A                 Bm                G
Eb|-2-2-2-2-2-2-2-2-|-----------------|-----------------|-----------------|
Bb|-3-3-3-3-3-3-3-3-|-2-2-2-2-2-2-2-2-|-3-3-3-3-3-3-3-3-|-3-3-3-3-3-3-3-3-|
Gb|-2-2-2-2-2-2-2-2-|-2-2-2-2-2-2-2-2-|-4-4-4-4-4-4-4-4-|-0-0-0-0-0-0-0-0-|
Db|-0-0-0-0-0-0-0-0-|-2-2-2-2-2-2-2-2-|-4-4-4-4-4-4-4-4-|-0-0-0-0-0-0-0-0-|
Ab|-----------------|-0-0-0-0-0-0-0-0-|-2-2-2-2-2-2-2-2-|-2-2-2-2-2-2-2-2-|
Eb|-----------------|-----------------|-----------------|-3-3-3-3-3-3-3-3-|


[Verse]
    G       Bm        A     Asus4 A
Eb|-----------------|---------------|
Bb|-3-3-3-3-7-7-7-7-|---------------|
Gb|-0-0-0-0-7-7-7-7-|-6-6-6-7--6--6-|
Db|-0-0-0-0-0-0-0-0-|-7-7-7-7--7--7-| x8
Ab|-2-2-2-2-x-x-x-x-|-0-0-0-0--0--0-|
Eb|-3-3-3-3-7-7-7-7-|---------------|


[Chorus]
    D                 A                 Bm                G
Eb|-----------------|-----------------|-----------------|-----------------|
Bb|-7-7-7-7-7-7-7-7-|-----------------|-7-7-7-7-7-7-7-7-|-3-3-3-3-3-3-3-3-|
Gb|-7-7-7-7-7-7-7-7-|-6-6-6-6-6-6-6-6-|-7-7-7-7-7-7-7-7-|-0-0-0-0-0-0-0-0-|
Db|-7-7-7-7-7-7-7-7-|-7-7-7-7-7-7-7-7-|-0-0-0-0-0-0-0-0-|-0-0-0-0-0-0-0-0-|
Ab|-5-5-5-5-5-5-5-5-|-7-7-7-7-7-7-7-7-|-x-x-x-x-x-x-x-x-|-2-2-2-2-2-2-2-2-|
Eb|-----------------|-5-5-5-5-5-5-5-5-|-7-7-7-7-7-7-7-7-|-3-3-3-3-3-3-3-3-|

    D                 A                 Bm                G
Eb|-2-2-2-2-2-2-2-2-|-----------------|-----------------|-----------------|
Bb|-3-3-3-3-3-3-3-3-|-2-2-2-2-2-2-2-2-|-3-3-3-3-3-3-3-3-|-3-3-3-3-3-3-3-3-|
Gb|-2-2-2-2-2-2-2-2-|-2-2-2-2-2-2-2-2-|-4-4-4-4-4-4-4-4-|-0-0-0-0-0-0-0-0-|
Db|-0-0-0-0-0-0-0-0-|-2-2-2-2-2-2-2-2-|-4-4-4-4-4-4-4-4-|-0-0-0-0-0-0-0-0-| x3
Ab|-----------------|-0-0-0-0-0-0-0-0-|-2-2-2-2-2-2-2-2-|-2-2-2-2-2-2-2-2-|
Eb|-----------------|-----------------|-----------------|-3-3-3-3-3-3-3-3-|


[Bridge/Outro]
    D       A         Bm      G
Eb|-2-2-2-2---------|-----------------|
Bb|-3-3-3-3-2-2-2-2-|-3-3-3-3-3-3-3-3-|
Gb|-2-2-2-2-2-2-2-2-|-4-4-4-4-0-0-0-0-|
Db|-0-0-0-0-2-2-2-2-|-4-4-4-4-0-0-0-0-| x11
Ab|---------0-0-0-0-|-2-2-2-2-2-2-2-2-|
Eb|-----------------|---------3-3-3-3-|


[Ending]
    D       A         Bm      G         D
Eb|-2---------------|-----------------|-2---|
Bb|-3-------2-------|-3-------3-------|-3---|
Gb|-2-------2-------|-4-------0-------|-2---|
Db|-0-------2-------|-4-------0-------|-0---|
Ab|---------0-------|-2-------2-------|-----|
Eb|-----------------|---------3-------|-----|


[Lyrics]
G Bm     A
I bled today
G    Bm     A
From fists against a wall
G  Bm      A
It dried a stain
G Bm       A
Reflection of what I am

G Bm     A
I fell today
G   Bm     A
Headlong onto the floor
G       Bm         A
Here is where I'll stay
    G        Bm     A
And think of you as my bones mend

D          A             Bm         G
I'm just a man, though a phantom is what they say
    D          A                      Bm             G
But if i truly were, I'd walk through walls for you

 Bm     A
Alone today
G  Bm     A
No one to call my friend
G  Bm     A
No one to stay
G  Bm     A
No one to help me send
G   Bm      A
The shadows home
G   Bm        A
And knock the spiders down
G  Bm     A
No one to say
G        Bm      A
"Oh, how could I live without you"?

D          A             Bm         G
I'm just a man, though a phantom is what they say
    D          A                      Bm             G
But if i truly were, I'd walk through walls for you

D   A            Bm    G
I'd walk through walls for you

D    A            Bm   G
I've been shunned my entire life
D    A          Bm      G
Just once would someone touch my face?
D     A       Bm       G
Would someone stay all night with me?
D    A         Bm      G
Hear my songs? Feel my passion?

D   A            Bm    G
I'd walk through walls for you

            
            
Suggest correction
Creating personal tab
Creating personal tab
You can edit any tab online and save it as your Personal.

You can edit, replace or remove any tab part or add personal notes – all changes will be seen only by you.

Personal tabs can be accessed anytime from any device, even offline.
Learn more »
Give kudos to tab author, rate the tab!
1 2 3 4 5
comments
print report bad tab
guest
You may want to rate the tab now too:
select rating
Wanna post a correction for this tab? Suggest correction