Oops, an error
Loading. Please wait.

Mary And The Storm tab

version 3
version 3

Whole song

31 views 1 this week
no commentswrite comment
1 2 3 4 5
3 more votes to show rating
add to favorites
×
Save as Personal and add changes to this tab that will be seen only by you. Learn more ›
×
You can save this tab as Personal to edit and correct it or add notes. All changes will be seen only by you. Learn more »
launch autoscroll
font size
0
reset
how to read this tab
guitar tuner
edit
Autoscroll
slow
fast
+/-
esc
set tempo
stop
About this tab version
This is the correct tuning for this song. Was this info helpful? Yes No
[Intro]
eb|-----------0------------------0----------------------------------------------|
Bb|-------------------------------------------------7---------7h8-----7---------|
Gb|-----7--------7---7-----7--------7---7-----7--------7---7-------------7---7--|
Db|--------7-------7----------7-------7----------7-------7---------5-------5----|
Ab|--5------------------0-------------------------------------------------------|
Eb|----------------------------------------7------------------------------------|

eb|-----------0------------------0----------------------------------------------|
Bb|-------------------------------------------------7---------7h8-----7---------|
Gb|-----7--------7---7-----7--------7---7-----7--------7---7-------------7---7--|
Db|--------7-------7----------7-------7----------7-------7---------5-------5----|
Ab|--5------------------0-------------------------------------------------------|
Eb|----------------------------------------7------------------------------------|

eb|-----------0------------------0----------------------------------------------|
Bb|-------------------------------------------------7---------7h8-----7---------|
Gb|-----7--------7---7-----7--------7---7-----7--------7---7-------------7---7--|
Db|--------7-------7----------7-------7----------7-------7---------5-------5----|
Ab|--5------------------0-------------------------------------------------------|
Eb|----------------------------------------7------------------------------------|

eb|-----------0------------------0----------------------------------------------|
Bb|-------------------------------------------------7---------7h8-----7---------|
Gb|-----7--------7---7-----7--------7---7-----7--------7---7-------------7---7--|
Db|--------7-------7----------7-------7----------7-------7---------5-------5----|
Ab|--5------------------0-------------------------------------------------------|
Eb|----------------------------------------7------------------------------------|

eb|------------------------------------------------------------|
Bb|------------------------------------------------------------|
Gb|--7--7-7--7-7----------------------------11/12/11-11-11-11--|
Db|--7--7-7--7-7--7--7-7--7-7--9--9-9--9-9--xxxxx-xx-xx-xx-xx--|
Ab|--5--5-5--5-5--7--7-7--7-7--9--9-9--9-9--9-/10/9--9--9--9---|
Eb|---------------5--5-5--5-5--7--7-7--7-7---------------------|

eb|------------------------------------------------------------|
Bb|------------------------------------------------------------|
Gb|--7--7-7--7-7----------------------------11/12/11-11-11-11--|
Db|--7--7-7--7-7--7--7-7--7-7--9--9-9--9-9--xxxxx-xx-xx-xx-xx--|
Ab|--5--5-5--5-5--7--7-7--7-7--9--9-9--9-9--9-/10/9--9--9--9---|
Eb|---------------5--5-5--5-5--7--7-7--7-7---------------------|


eb|------------------------------------------------------------|
Bb|------------------------------------------------------------|
Gb|--7--7-7--7-7----------------------------11/12/11-11-11-11--|
Db|--7--7-7--7-7--7--7-7--7-7--9--9-9--9-9--xxxxx-xx-xx-xx-xx--|
Ab|--5--5-5--5-5--7--7-7--7-7--9--9-9--9-9--9-/10/9--9--9--9---|
Eb|---------------5--5-5--5-5--7--7-7--7-7---------------------|

eb|------------------------------------------------------------|
Bb|------------------------------------------------------------|
Gb|--7--7-7--7-7----------------------------11/12/11-11-11-11--|
Db|--7--7-7--7-7--7--7-7--7-7--9--9-9--9-9--xxxxx-xx-xx-xx-xx--|
Ab|--5--5-5--5-5--7--7-7--7-7--9--9-9--9-9--9-/10/9--9--9--9---|
Eb|---------------5--5-5--5-5--7--7-7--7-7---------------------|

[Verse 1]
eb|--------------------------------------------------------|
Bb|--------------------------------------------------------|
Gb|--7--7-7--7-7-------------------------------------------|
Db|--7--7-7--7-7--7--7-7--7-7--9--9-9--9-9--9-9--9-9--9-9--|
Ab|--5--5-5--5-5--7--7-7--7-7--9--9-9--9-9--9-9--9-9--9-9--|
Eb|---------------5--5-5--5-5--7--7-7--7-7--7-7--7-7--7-7--|

eb|--------------------------------------------------------|
Bb|--------------------------------------------------------|
Gb|--7--7-7--7-7-------------------------------------------|
Db|--7--7-7--7-7--7--7-7--7-7--9--9-9--9-9--9-9--9-9--9-9--|
Ab|--5--5-5--5-5--7--7-7--7-7--9--9-9--9-9--9-9--9-9--9-9--|
Eb|---------------5--5-5--5-5--7--7-7--7-7--7-7--7-7--7-7--|

eb|--------------------------------------------------------|
Bb|--------------------------------------------------------|
Gb|--7--7-7--7-7-------------------------------------------|
Db|--7--7-7--7-7--7--7-7--7-7--9--9-9--9-9--9-9--9-9--9-9--|
Ab|--5--5-5--5-5--7--7-7--7-7--9--9-9--9-9--9-9--9-9--9-9--|
Eb|---------------5--5-5--5-5--7--7-7--7-7--7-7--7-7--7-7--|

eb|--------------------------------------------------------|
Bb|--------------------------------------------------------|
Gb|--7--7-7--7-7-------------------------------------------|
Db|--7--7-7--7-7--7--7-7--7-7--9--9-9--9-9--9-9--9-9--9-9--|
Ab|--5--5-5--5-5--7--7-7--7-7--9--9-9--9-9--9-9--9-9--9-9--|
Eb|---------------5--5-5--5-5--7--7-7--7-7--7-7--7-7--7-7--|

[Chorus 1]
eb|-------------------------------------------------|
Bb|-------------------------------------------------|
Gb|----------------------------4--4-4--4-4--4-4--2--|
Db|--5--5-5--5-5--7--7-7--7-7--4--4-4--4-4--4-4--2--|
Ab|--5--5-5--5-5--7--7-7--7-7--2--2-2--2-2--2-2--0--|
Eb|--3--3-3--3-3--5--5-5--5-5-----------------------|

eb|-------------------------------------------------|
Bb|-------------------------------------------------|
Gb|----------------------------4--4-4--4-4--4-4--2--|
Db|--5--5-5--5-5--7--7-7--7-7--4--4-4--4-4--4-4--2--|
Ab|--5--5-5--5-5--7--7-7--7-7--2--2-2--2-2--2-2--0--|
Eb|--3--3-3--3-3--5--5-5--5-5-----------------------|

eb|-------------------------------------------------|
Bb|-------------------------------------------------|
Gb|----------------------------4--4-4--4-4--4-4--2--|
Db|--5--5-5--5-5--7--7-7--7-7--4--4-4--4-4--4-4--2--|
Ab|--5--5-5--5-5--7--7-7--7-7--2--2-2--2-2--2-2--0--|
Eb|--3--3-3--3-3--5--5-5--5-5-----------------------|

eb|-------------------------------------------------|
Bb|-------------------------------------------------|
Gb|----------------------------4--4-4--4-4--4-4--2--|
Db|--5--5-5--5-5--7--7-7--7-7--4--4-4--4-4--4-4--2--|
Ab|--5--5-5--5-5--7--7-7--7-7--2--2-2--2-2--2-2--0--|
Eb|--3--3-3--3-3--5--5-5--5-5-----------------------|

[Verse 2]
eb|--------------------------------------------------------|
Bb|--------------------------------------------------------|
Gb|--7--7-7--7-7-------------------------------------------|
Db|--7--7-7--7-7--7--7-7--7-7--9--9-9--9-9--9-9--9-9--9-9--|
Ab|--5--5-5--5-5--7--7-7--7-7--9--9-9--9-9--9-9--9-9--9-9--|
Eb|---------------5--5-5--5-5--7--7-7--7-7--7-7--7-7--7-7--|

eb|--------------------------------------------------------|
Bb|--------------------------------------------------------|
Gb|--7--7-7--7-7-------------------------------------------|
Db|--7--7-7--7-7--7--7-7--7-7--9--9-9--9-9--9-9--9-9--9-9--|
Ab|--5--5-5--5-5--7--7-7--7-7--9--9-9--9-9--9-9--9-9--9-9--|
Eb|---------------5--5-5--5-5--7--7-7--7-7--7-7--7-7--7-7--|

eb|--------------------------------------------------------|
Bb|--------------------------------------------------------|
Gb|--7--7-7--7-7-------------------------------------------|
Db|--7--7-7--7-7--7--7-7--7-7--9--9-9--9-9--9-9--9-9--9-9--|
Ab|--5--5-5--5-5--7--7-7--7-7--9--9-9--9-9--9-9--9-9--9-9--|
Eb|---------------5--5-5--5-5--7--7-7--7-7--7-7--7-7--7-7--|

eb|--------------------------------------------------------|
Bb|--------------------------------------------------------|
Gb|--7--7-7--7-7-------------------------------------------|
Db|--7--7-7--7-7--7--7-7--7-7--9--9-9--9-9--9-9--9-9--9-9--|
Ab|--5--5-5--5-5--7--7-7--7-7--9--9-9--9-9--9-9--9-9--9-9--|
Eb|---------------5--5-5--5-5--7--7-7--7-7--7-7--7-7--7-7--|

[Chorus 2]
eb|-------------------------------------------------|
Bb|-------------------------------------------------|
Gb|----------------------------4--4-4--4-4--4-4--2--|
Db|--5--5-5--5-5--7--7-7--7-7--4--4-4--4-4--4-4--2--|
Ab|--5--5-5--5-5--7--7-7--7-7--2--2-2--2-2--2-2--0--|
Eb|--3--3-3--3-3--5--5-5--5-5-----------------------|

eb|-------------------------------------------------|
Bb|-------------------------------------------------|
Gb|----------------------------4--4-4--4-4--4-4--2--|
Db|--5--5-5--5-5--7--7-7--7-7--4--4-4--4-4--4-4--2--|
Ab|--5--5-5--5-5--7--7-7--7-7--2--2-2--2-2--2-2--0--|
Eb|--3--3-3--3-3--5--5-5--5-5-----------------------|

eb|-------------------------------------------------|
Bb|-------------------------------------------------|
Gb|----------------------------4--4-4--4-4--4-4--2--|
Db|--5--5-5--5-5--7--7-7--7-7--4--4-4--4-4--4-4--2--|
Ab|--5--5-5--5-5--7--7-7--7-7--2--2-2--2-2--2-2--0--|
Eb|--3--3-3--3-3--5--5-5--5-5-----------------------|

eb|------------------------------|
Bb|------------------------------|
Gb|------------------------------|
Db|--5--5-5--5-5--7--7-7--7-7--2-|
Ab|--5--5-5--5-5--7--7-7--7-7--2-|
Eb|--3--3-3--3-3--5--5-5--5-5--0-|

[Bridge]
eb|---------------------------------------------------|
Bb|---------------------------------------------------|
Gb|-5--5-5--5-5---------------7--7-7/9-9/11/12/11/9/7-|
Db|-5--5-5--5-5--5--5-5--5-5--------------------------|
Ab|-3--3-3--3-3--5--5-5--5-5--5--5-5/7-7/9-/10/9-/7/5-|
Eb|--------------3--3-3--3-3--------------------------|

eb|---------------------------------------------------|
Bb|---------------------------------------------------|
Gb|-5--5-5--5-5---------------7--7-7/9-9/11/12/11/9/7-|
Db|-5--5-5--5-5--5--5-5--5-5--------------------------|
Ab|-3--3-3--3-3--5--5-5--5-5--5--5-5/7-7/9-/10/9-/7/5-|
Eb|--------------3--3-3--3-3--------------------------|

eb|---------------------------------------------------|
Bb|---------------------------------------------------|
Gb|-5--5-5--5-5---------------7--7-7/9-9/11/12/11/9/7-|
Db|-5--5-5--5-5--5--5-5--5-5--------------------------|
Ab|-3--3-3--3-3--5--5-5--5-5--5--5-5/7-7/9-/10/9-/7/5-|
Eb|--------------3--3-3--3-3--------------------------|

eb|---------------------------------------------------|
Bb|---------------------------------------------------|
Gb|-5--5-5--5-5---------------7--7-7/9-9/11/12/11/9/7-|
Db|-5--5-5--5-5--5--5-5--5-5--------------------------|
Ab|-3--3-3--3-3--5--5-5--5-5--5--5-5/7-7/9-/10/9-/7/5-|
Eb|--------------3--3-3--3-3--------------------------|

eb|---------------------------------------------------|
Bb|---------------------------------------------------|
Gb|-5--5-5--5-5---------------7--7-7/9-9/11/12/11/9/7-|
Db|-5--5-5--5-5--5--5-5--5-5--------------------------|
Ab|-3--3-3--3-3--5--5-5--5-5--5--5-5/7-7/9-/10/9-/7/5-|
Eb|--------------3--3-3--3-3--------------------------|

eb|---------------------------------------------------|
Bb|---------------------------------------------------|
Gb|-5--5-5--5-5---------------7--7-7/9-9/11/12/11/9/7-|
Db|-5--5-5--5-5--5--5-5--5-5--------------------------|
Ab|-3--3-3--3-3--5--5-5--5-5--5--5-5/7-7/9-/10/9-/7/5-|
Eb|--------------3--3-3--3-3--------------------------|

eb|---------------------------------------------------|
Bb|---------------------------------------------------|
Gb|-5--5-5--5-5---------------7--7-7/9-9/11/12/11/9/7-|
Db|-5--5-5--5-5--5--5-5--5-5--------------------------|
Ab|-3--3-3--3-3--5--5-5--5-5--5--5-5/7-7/9-/10/9-/7/5-|
Eb|--------------3--3-3--3-3--------------------------|

eb|-------------------------|
Bb|-------------------------|
Gb|-5---------------------7-|
Db|-5----------5----------7-|
Ab|-3----------5----------5-|
Eb|------------3------------|

eb|-------------------------|
Bb|-------------------------|
Gb|-5---------------------7-|
Db|-5----------5----------7-|
Ab|-3----------5----------5-|
Eb|------------3------------|

eb|-------------------------|
Bb|-------------------------|
Gb|-5---------------------7-|
Db|-5----------5----------7-|
Ab|-3----------5----------5-|
Eb|------------3------------|

eb|-------------------------|
Bb|-------------------------|
Gb|-5---------------------7-|
Db|-5----------5----------7-|
Ab|-3----------5----------5-|
Eb|------------3------------|

eb|-------------------------|
Bb|-------------------------|
Gb|-5---------------------7-|
Db|-5----------5----------7-|
Ab|-3----------5----------5-|
Eb|------------3------------|

[Outro]
eb|-----------0------------------0----------------------------------------------|
Bb|-------------------------------------------------7---------7h8-----7---------|
Gb|-----7--------7---7-----7--------7---7-----7--------7---7-------------7---7--|
Db|--------7-------7----------7-------7----------7-------7---------5-------5----|
Ab|--5------------------0-------------------------------------------------------|
Eb|----------------------------------------7------------------------------------|

eb|-----------0------------------0----------------------------------------------|
Bb|-------------------------------------------------7---------7h8-----7---------|
Gb|-----7--------7---7-----7--------7---7-----7--------7---7-------------7---7--|
Db|--------7-------7----------7-------7----------7-------7---------5-------5----|
Ab|--5------------------0-------------------------------------------------------|
Eb|----------------------------------------7------------------------------------|

eb|-----------0------------------0----------------------------------------------|
Bb|-------------------------------------------------7---------7h8-----7---------|
Gb|-----7--------7---7-----7--------7---7-----7--------7---7-------------7---7--|
Db|--------7-------7----------7-------7----------7-------7---------5-------5----|
Ab|--5------------------0-------------------------------------------------------|
Eb|----------------------------------------7------------------------------------|

eb|-----------0------------------0----------------------------------------------|
Bb|---------------------------------------------------------------7-------------|
Gb|-----7--------7---7-----7--------7---7-----7--------7---7---------7---7------|
Db|--------7-------7----------7-------7----------7-------7-----5-------5-----2--|
Ab|--5------------------0----------------------------------------------------2--|
Eb|----------------------------------------7---------------------------------0--|

************************************

| b  Bend
| h  Hammer-on
| /  Slide up
| x  Dead note

************************************

            
            
Suggest correction
Creating personal tab
Creating personal tab
You can edit any tab online and save it as your Personal.

You can edit, replace or remove any tab part or add personal notes – all changes will be seen only by you.

Personal tabs can be accessed anytime from any device, even offline.
Learn more »
Give kudos to tab author, rate the tab!
1 2 3 4 5
comments
print report bad tab
guest
You may want to rate the tab now too:
select rating
Wanna post a correction for this tab? Suggest correction