Oops, an error
Loading. Please wait.

Armageddon bass

version 1
version 1

Whole song

Interactive

38 views 1 this week
no commentswrite comment
1 2 3 4 5
x 11
add to favorites
×
Save as Personal and add changes to this tab that will be seen only by you. Learn more ›
×
You can save this tab as Personal to edit and correct it or add notes. All changes will be seen only by you. Learn more »
launch autoscroll
font size
0
reset
guitar tuner
edit
Autoscroll
slow
fast
+/-
esc
set tempo
stop
Author
Difficulty
                                  Armageddon                                    


                                  Blitzkrieg

Mick Moore



          Intro / Main Riff                                   
     S    H.                E  E     E  E  E  E  E  E  E  E   
G||----|--------------------------|--------------------------|
D||----|--------------------------|--------------------------|
A||----|--------------------------|--------------------------|
E||----|-----------------------5--|--L--3--5--5--3--5--5--5--|


  E  E  E  E  E  E  E  E     E  E  E  E  E  E  E  E   
--------------------------|--------------------------|
--------------------------|--------------------------|
-----------------------3--|--L-----------------------|
--3--5--5--5--3--5--5-----|-----5--5--5--3--5--5--5--|


  E  E  E  E  E  E  E  E     E  E  E  E  E  E  E  E   
--------------------------|--------------------------|
--------------------------|--------------------------|
-----------------------3--|--L-----------------------|
--3--5--5--5--3--5--5-----|-----5--5--5--3--5--5--5--|


  E  E  E  E  E  E  E  E     E  E  E  E  E  E  E  E     E  E  E  E  E  E  Q     
--------------------------|--------------------------|-------------------------|
--------------------------|--------------------------|-------------------------|
--------------------------|--------------------------|-------------------------|
--5--7--7--5--6--6--3--5--|--L--5--5--5--5--5--5--5--|--5--5--5--5--5--5--3----|


  Q    E  E  E  E  E  E     E  E  E  E  E  E  E  E     E  E  E  E  E  E  E  E   
-------------------------|--------------------------|--------------------------|
-------------------------|--------------------------|--------------------------|
-------------------------|--------------------5--3--|--L-----------------------|
--5----5--5--5--3--5--5--|--3--5--5--5--3--5--------|-----5--5--5--3--5--5--5--|


  E  E  E  E  E  E  E  E     E  E  E  E  E  E  E  E   
--------------------------|--------------------------|
--------------------------|--------------------------|
--------------------5--3--|--L-----------------------|
--3--5--5--5--3--5--------|-----5--5--5--3--5--5--5--|


  E  E  E  E  E  E  E  E     E  E  E  E  E  E  E  E   
--------------------------|--------------------------|
--------------------------|--------------------------|
--------------------------|--------------------------|
--5--7--6--5--6--5--3--5--|--L--5--5--5--5--5--5--5--|


                             Riff B                    
  E  E  E  E  E  E  E  E     Q      E  E  E  E  E  E   
--------------------------|---------------------------|
--------------------------|---------------------------|
-----------------------3--|--5------5--5--3--5--5--5--|
--5--5--5--5--5--5--5-----|---------------------------|


  E  E  E  E  E  E  E  E     E  E  E  E  E  E  E  E   
--------------------------|--------------------------|
-----------------------3--|--L-----------------------|
--3--5--5--5--3--5--5-----|-----5--5--5--3--5--5--5--|
--------------------------|--------------------------|


  E  E  E  E  E  E  E  E     E  E  E  E  E  E  E  E   
--------------------------|--------------------------|
-----------------------3--|--L-----------------------|
--3--5--5--5--3--5--5-----|-----5--5--5--3--5--5--5--|
--------------------------|--------------------------|


  E  E  E  E  E  E  E  E     E  E  E  E  E  E  E  E   
--------------------------|--------------------------|
--------------------------|--------------------------|
--5--7--7--5--6-----3--5--|--L--5--5--5--5--5--5--5--|
-----------------5--------|--------------------------|


  E  E  E  E  E  E  E  E     E  E  E  E  E  E  E  E   
--------------------------|--------------------------|
--------------------------|--------------------------|
--5--5--3-----3-----3--5--|--L--5--5--5--3--5--5--5--|
-----------5-----5--------|--------------------------|


  E  E  E  E  E  E  E  E     E  E  E  E  E  E  E  E   
--------------------------|--------------------------|
--------------------5--3--|--L-----------------------|
--3--5--5--5--3--5--------|-----5--5--5--3--5--5--5--|
--------------------------|--------------------------|


  E  E  E  E  E  E  E  E     E  E  E  E  E  E  E  E   
--------------------------|--------------------------|
--------------------5--3--|--L-----------------------|
--3--5--5--5--3--5--------|-----5--5--5--3--5--5--5--|
--------------------------|--------------------------|


  E  E  E  E  E  E  E  E     E  E  E  E  E  E  E  E     E  E  Q    E  E  E  E   
--------------------------|--------------------------|-------------------------|
--------------------------|--------------------------|-------------------------|
--5--7--6--5--6-----3--5--|--L--5--5--5--5--5--5--5--|--5--5--5----3-----3-----|
-----------------5--------|--------------------------|----------------5-----5--|


  Main Riff                                                  
  E         E  E  E  E  E  E  E     E  E  E  E  E  E  E  E   
---------------------------------|--------------------------|
---------------------------------|--------------------------|
---------------------------------|-----------------------3--|
--L---------3--5--5--3--5--5--5--|--3--5--5--5--3--5--5-----|


  E  E  E  E  E  E  E  E     E  E  E  E  E  E  E  E   
--------------------------|--------------------------|
--------------------------|--------------------------|
--L-----------------------|-----------------------3--|
-----5--5--5--3--5--5--5--|--3--5--5--5--3--5--5-----|


  E  E  E  E  E  E  E  E     E  E  E  E  E  E  E  E   
--------------------------|--------------------------|
--------------------------|--------------------------|
--L-----------------------|--------------------------|
-----5--5--5--3--5--5--5--|--5--7--7--5--6--6--3--5--|


  E  E  E  E  E  E  E  E     E  E  E  E  Q    Q       Q    E  E  E  E  E  E   
--------------------------|------------------------|-------------------------|
--------------------------|------------------------|-------------------------|
--------------------------|------------------------|-------------------------|
--L--5--5--5--5--5--5--5--|--5--5--5--5--5----3----|--5----5--5--5--3--5--5--|


  E  E  E  E  E  E  E  E     E  E  E  E  E  E  E  E   
--------------------------|--------------------------|
--------------------------|--------------------------|
--------------------5--3--|--L-----------------------|
--3--5--5--5--3--5--------|-----5--5--5--3--5--5--5--|


  E  E  E  E  E  E  E  E     E  E  E  E  E  E  E  E   
--------------------------|--------------------------|
--------------------------|--------------------------|
--------------------5--3--|--L-----------------------|
--3--5--5--5--3--5--------|-----5--5--5--3--5--5--5--|


  E  E  E  E  E  E  E  E     E  E  E  E  E  E  E  E     E  E  E  E  E  E  Q     
--------------------------|--------------------------|-------------------------|
--------------------------|--------------------------|-------------------------|
--------------------------|--------------------------|-------------------------|
--5--7--6--5--6--5--3--5--|--L--5--5--5--5--5--5--5--|--5--5--5--5--5--5--3----|


  Verso A                                               
  Q       E  E  E  E  E  E     E  E  E  E  E  E  E  E   
----------------------------|--------------------------|
----------------------------|--------------------------|
----------------------------|--------------------------|
--5-------5--5--5--3--5--5--|--3--5--5--5--3--5--5--5--|


  E  E  E  E  E  E  E  E     E  E  E  E  E  Q    E   
--------------------------|-------------------------|
--------------------------|-------------------------|
--------------------------|-----------------3-------|
--L--5--5--5--3--5--5--5--|--3--5--5--5--3-------5--|


  Pre-Coro A                                               
  E          E  Q    E  E  Q       E  E  Q    E  E  E  E   
--------------------------------|-------------------------|
--------------------------------|-------------------------|
--------------------------------|-------------------------|
--L----------3--L----3--3--3----|--3--3--3----3--5--5--5--|


                                                     Verso A                    
  E  E  Q    E  E  Q       E  E  Q    E  E  E  E     Q       E  E  E  E  E  E   
------------------------|-------------------------|----------------------------|
------------------------|-------------------------|----------------------------|
------------------------|-------------------------|----------------------------|
--L--3--3----3--3--3----|--3--3--3----3--3--3--3--|--5-------5--5--5--3--5--5--|


  E  E  E  E  E  E  E  E     E  E  E  E  E  E  E  E     E  E  E  E  E  Q    E   
--------------------------|--------------------------|-------------------------|
--------------------------|--------------------------|-------------------------|
--------------------------|--------------------------|-----------------3-------|
--3--5--5--5--3--5--5--5--|--L--5--5--5--3--5--5--5--|--3--5--5--5--3-------5--|


  Pre-Coro A                                               
  E          E  Q    E  E  Q       E  E  Q    E  E  E  E   
--------------------------------|-------------------------|
--------------------------------|-------------------------|
--------------------------------|-------------------------|
--L----------3--L----3--3--3----|--3--3--3----3--5--5--5--|


                                                     Coro A              
  E  E  Q    E  E  Q       E  E  Q    E  E  E  E     Q.     Q.     Q     
------------------------|-------------------------|--5-------------5----|
------------------------|-------------------------|---------5-----------|
------------------------|-------------------0--2--|--3------------------|
--L--3--3----3--3--3----|--3--3--3----3--3--------|---------------------|


  Q    E  Q    E  Q       Q.     Q.     Q       Q    E  Q    E  Q     
--L-------5-------5----|---------------------|------------------5----|
-------5-------5-------|--5-------------5----|--L-------5------------|
--L--------------------|---------5-----------|-------5-------5-------|
-----------------------|--3------------------|-----------------------|


  Q.     Q.     Q       E    Q      Q    E  Q       Q.     Q.     Q     
---------------------|---------------------------|---------------------|
--7-------------7----|--L--5g7----5g7-------9----|--5-------------5----|
---------7-----------|-------------------7-------|---------5-----------|
--5------------------|---------------------------|--3------------------|


                             Main Riff                    
  E  E  Q      Q    E  E     Q         E  E  E  E  E  E   
--------------------------|------------------------------|
--L----------4g5----------|------------------------------|
-----5--L-----------------|------------------------------|
--------------------0--3--|--5---------5--5--3--5--5--5--|


  E  E  E  E  E  E  E  E     E  E  E  E  E  E  E  E   
--------------------------|--------------------------|
--------------------------|--------------------------|
-----------------------3--|--L-----------------------|
--3--5--5--5--3--5--5-----|-----5--5--5--3--5--5--5--|


  E  E  E  E  E  E  E  E     E  E  E  E  E  E  E  E   
--------------------------|--------------------------|
--------------------------|--------------------------|
-----------------------3--|--L-----------------------|
--3--5--5--5--3--5--5-----|-----5--5--5--3--5--5--5--|


  E  E  E  E  E  E  E  E     E  E  E  E  E  E  E  E     E  E  E  E  E  E  Q     
--------------------------|--------------------------|-------------------------|
--------------------------|--------------------------|-------------------------|
--------------------------|--------------------------|-------------------------|
--5--7--7--5--6--6--3--5--|--L--5--5--5--5--5--5--5--|--5--5--5--5--5--5--3----|


  Q    E  E  E  E  E  E     E  E  E  E  E  E  E  E     E  E  E  E  E  E  E  E   
-------------------------|--------------------------|--------------------------|
-------------------------|--------------------------|--------------------------|
-------------------------|--------------------5--3--|--L-----------------------|
--5----5--5--5--3--5--5--|--3--5--5--5--3--5--------|-----5--5--5--3--5--5--5--|


  E  E  E  E  E  E  E  E     E  E  E  E  E  E  E  E   
--------------------------|--------------------------|
--------------------------|--------------------------|
--------------------5--3--|--L-----------------------|
--3--5--5--5--3--5--------|-----5--5--5--3--5--5--5--|


  E  E  E  E  E  E  E  E     E  E  E  E  E  E  E  E     E  E  E  E  E  E  Q     
--------------------------|--------------------------|-------------------------|
--------------------------|--------------------------|-------------------------|
--------------------------|--------------------------|-------------------------|
--5--7--6--5--6--5--3--5--|--L--5--5--5--5--5--5--5--|--5--5--5--5--5--5--3----|


  Verso A                                               
  Q       E  E  E  E  E  E     E  E  E  E  E  E  E  E   
----------------------------|--------------------------|
----------------------------|--------------------------|
----------------------------|--------------------------|
--5-------5--5--5--3--5--5--|--3--5--5--5--3--5--5--5--|


  E  E  E  E  E  E  E  E     E  E  E  E  E  Q    E   
--------------------------|-------------------------|
--------------------------|-------------------------|
--------------------------|-----------------3-------|
--L--5--5--5--3--5--5--5--|--3--5--5--5--3-------5--|


  Pre-Coro A                                               
  E          E  Q    E  E  Q       E  E  Q    E  E  E  E   
--------------------------------|-------------------------|
--------------------------------|-------------------------|
--------------------------------|-------------------------|
--L----------3--L----3--3--3----|--3--3--3----3--5--5--5--|


                                                     Verso A                    
  E  E  Q    E  E  Q       E  E  Q    E  E  E  E     Q       E  E  E  E  E  E   
------------------------|-------------------------|----------------------------|
------------------------|-------------------------|----------------------------|
------------------------|-------------------------|----------------------------|
--L--3--3----3--3--3----|--3--3--3----3--3--3--3--|--5-------5--5--5--3--5--5--|


  E  E  E  E  E  E  E  E     E  E  E  E  E  E  E  E     E  E  E  E  E  Q    E   
--------------------------|--------------------------|-------------------------|
--------------------------|--------------------------|-------------------------|
--------------------------|--------------------------|-----------------3-------|
--3--5--5--5--3--5--5--5--|--L--5--5--5--3--5--5--5--|--3--5--5--5--3-------5--|


  Pre-Coro A                                               
  E          E  Q    E  E  Q       E  E  Q    E  E  E  E   
--------------------------------|-------------------------|
--------------------------------|-------------------------|
--------------------------------|-------------------------|
--L----------3--L----3--3--3----|--3--3--3----3--5--5--5--|


                                                     Coro A              
  E  E  Q    E  E  Q       E  E  Q    E  E  E  E     Q.     Q.     Q     
------------------------|-------------------------|--5-------------5----|
------------------------|-------------------------|---------5-----------|
------------------------|-------------------------|--3------------------|
--L--3--3----3--3--3----|--3--3--3----3--3--3--5--|---------------------|


  Q    E  Q    E  Q       Q.     Q.     Q       Q    E  Q    E  Q     
--L-------5-------5----|---------------------|------------------5----|
-------5-------5-------|--5-------------5----|--L-------5------------|
--L--------------------|---------5-----------|-------5-------5-------|
-----------------------|--3------------------|-----------------------|


  Q.     Q.     Q       E    Q      Q    E  Q       Q.     Q.     Q     
---------------------|---------------------------|---------------------|
--7-------------7----|--L--5g7----5g7-------9----|--5-------------5----|
---------7-----------|-------------------7-------|---------5-----------|
--5------------------|---------------------------|--3------------------|


                             Main Riff                    
  E  E  Q      Q    E  E     Q         E  E  E  E  E  E   
--------------------------|------------------------------|
--L----------4g5----------|------------------------------|
-----5--L-----------------|------------------------------|
--------------------0--3--|--5---------5--5--3--5--5--5--|


  E  E  E  E  E  E  E  E     E  E  E  E  E  E  E  E   
--------------------------|--------------------------|
--------------------------|--------------------------|
-----------------------3--|--L-----------------------|
--3--5--5--5--3--5--5-----|-----5--5--5--3--5--5--5--|


  E  E  E  E  E  E  E  E     E  E  E  E  E  E  E  E   
--------------------------|--------------------------|
--------------------------|--------------------------|
-----------------------3--|--L-----------------------|
--3--5--5--5--3--5--5-----|-----5--5--5--3--5--5--5--|


  E  E  E  E  E  E  E  E     E  E  E  E  E  E  E  E     E  E  E  E  E  E  Q     
--------------------------|--------------------------|-------------------------|
--------------------------|--------------------------|-------------------------|
--------------------------|--------------------------|-------------------------|
--5--7--7--5--6--6--3--5--|--L--5--5--5--5--5--5--5--|--5--5--5--5--5--5--3----|


  Q    E  E  E  E  E  E     E  E  E  E  E  E  E  E     E  E  E  E  E  E  E  E   
-------------------------|--------------------------|--------------------------|
-------------------------|--------------------------|--------------------------|
-------------------------|--------------------5--3--|--L-----------------------|
--5----5--5--5--3--5--5--|--3--5--5--5--3--5--------|-----5--5--5--3--5--5--5--|


  E  E  E  E  E  E  E  E     E  E  E  E  E  E  E  E   
--------------------------|--------------------------|
--------------------------|--------------------------|
--------------------5--3--|--L-----------------------|
--3--5--5--5--3--5--------|-----5--5--5--3--5--5--5--|


  E  E  E  E  E  E  E  E     E  E  E  E  E  E  E  E     E  E  E  E  E  E  Q     
--------------------------|--------------------------|-------------------------|
--------------------------|--------------------------|-------------------------|
--------------------------|--------------------------|-------------------------|
--5--7--6--5--6--5--3--5--|--L--5--5--5--5--5--5--5--|--5--5--5--5--5--5--3----|


  Riff C                                                                      
  E      E  Q.     E  E  E     Q    E  Q    E  Q       E  E  Q.     E  E  E   
----------------------------|-----------------------|------------------------|
----------------------------|-----------------------|------------------------|
----------------------------|-----------------------|------------------------|
--7------6--5------5--7--6--|--5----5--5----5--5----|--7--6--5------5--7--6--|


  Q    E  Q    E  Q       E  E  Q.     E  E  E     Q    E  Q    E  Q     
-----------------------|------------------------|-----------------------|
-----------------------|------------------------|-----------------------|
-----------------------|------------------------|-----------------------|
--5----5--5----5--5----|--7--6--5------5--7--6--|--5----5--5----5--5----|


                                                   Break A           
  E  E  Q.     E  E  E     Q    E  Q    E  Q       W                 
------------------------|-----------------------|-------------------|
------------------------|-----------------------|-------------------|
------------------------|-----------------------|--2----------------|
--7--6--5------5--7--6--|--5----5--5----5--5----|-------------------|


  Q    E  E  E  E  E  E     W                   Q    E  E  E  E  E  E   
----------4--------------|-------------------|-------------------------|
-------4-----4-----------|-------------------|----------------------7--|
--L-------------5--4-----|-------------------|-------7--------5--7-----|
----------------------7--|--5----------------|--L-------5--7-----------|


  W                   Q    E  E  E  E  E  E     W                 
-------------------|----------4--------------|-------------------|
-------------------|-------4-----4-----------|-------------------|
--2----------------|--L-------------5--4-----|-------------------|
-------------------|----------------------7--|--5----------------|


                            Riff D (a)                       
  Q    E  E  E  E  E  E     E          E  E  E  E  E  E  E   
-------------------------|----------------------------------|
----------------------7--|----------------------------------|
-------7--------5--7-----|--2----------2--2--2--5--5--5--5--|
--L-------5--7-----------|----------------------------------|


  E  E  E  E  E  E  E  E     E  E  E  E  E  E  E  E   
--------------------------|--------------------------|
--------------------------|--------------------------|
--4--4--4--4--3--3--3--3--|--2--2--2--2--5--5--5--5--|
--------------------------|--------------------------|


                             Riff D (b)                       
  E  E  E  E  E  E  E  E     E          E  E  E  E  E  E  E   
--------------------------|----------------------------------|
--------------------------|----------------------------------|
--4--4--4--4--3--3--3--3--|--2----------2--2--2--5--5--5--5--|
--------------------------|----------------------------------|


  E  E  E  E  E  E  E  E     E  E  E  E  E  E  E  E   
--------------------------|--------------------------|
--------------------------|--------------------------|
--4--4--4--4--3--3--3--3--|--2--2--2--2--5--5--5--5--|
--------------------------|--------------------------|


                             Verso B                       
  E  E  E  E  E  E  E  E     E       E  E  E  E  E  E  E   
--------------------------|-------------------------------|
--------------------------|-------------------------------|
--4--4--4--4--3--3--3--3--|--2-------2--2--2--5--5--5--5--|
--------------------------|-------------------------------|


  E  E  E  E  E  E  E  E     E  E  E  E  E  E  E  E   
--------------------------|--------------------------|
--------------------------|--------------------------|
--4--4--4--4--3--3--3--3--|--2--2--2--2--5--5--5--5--|
--------------------------|--------------------------|


  E  E  E  E  E  E  E  E     E  E  E  E  E  E  E  E   
--------------------------|--------------------------|
--------------------------|--------------------------|
--4--4--4--4--3--3--3--3--|--2--2--2--2--5--5--5--5--|
--------------------------|--------------------------|


  E  E  E  E  E  E  E  E     E  E  E  E  E  E  E  E   
--------------------------|--------------------------|
--------------------------|--------------------------|
--4--4--4--4--3--3--3--3--|--2--2--2--2--5--5--5--5--|
--------------------------|--------------------------|


  E  E  E  E  E  E  E  E     E  E  E  E  E  E  E  E   
--------------------------|--------------------------|
--------------------------|--------------------------|
--4--4--4--4--3--3--3--3--|--2--2--2--2--5--5--5--5--|
--------------------------|--------------------------|


  E  E  E  E  E  E  E  E     E  E  E  E  E  E  E  E   
--------------------------|--------------------------|
--------------------------|--------------------------|
--4--4--4--4--3--3--3--3--|--2--2--2--2--5--5--5--5--|
--------------------------|--------------------------|


  E  E  E  E  E  E  E  E     E  E  E  E  E  E  E  E   
--------------------------|--------------------------|
--------------------------|--------------------------|
--4--4--4--4--3--3--3--3--|--2--2--2--2--5--5--5--5--|
--------------------------|--------------------------|


  E  E  E  E  E  E  E  E     E  E  E  E  E  E  E  E   
--------------------------|--------------------------|
--------------------------|--------------------------|
--4--4--4--4--3--3--3--3--|--2--2--2--2--5--5--5--5--|
--------------------------|--------------------------|


                             Pre-Coro B                                        
  E  E  E  E  E  E  E  E     Q.         E  Q    E  E     E  Q    Q    E  Q     
--------------------------|---------------------------|-----------------------|
--------------------------|---------------------------|-----------------------|
--4--4--4--4--3--3--3--3--|------------------------5--|--L---------------5----|
--------------------------|--3----------3--3----3-----|-----3----3----3-------|


                                                  Coro B               
  Q.     E  Q    E  E     E  Q    Q    E  Q       H        Q    E  E   
-----------------------|-----------------------|----------------------|
-----------------------|-----------------------|----------------------|
--------------------1--|--L---------------4----|--2--------2----2--2--|
--2------2--2----2-----|-----2----2----2-------|----------------------|


  H        Q    E  E     H        Q    E  E     H        Q    E  E   
----------------------|----------------------|----------------------|
----------------------|----------------------|----------------------|
--0--------0----0--0--|----------------------|----------------------|
----------------------|--3--------3----3--3--|--2--------2----2--2--|


  H        Q    E  E     H        Q    E  E     H        Q    E  E   
----------------------|----------------------|----------------------|
----------------------|----------------------|----------------------|
--2--------2----2--2--|--4--------4----4--4--|--5--------5----5--5--|
----------------------|----------------------|----------------------|


  H        Q    E  E     H        Q    E  E     H        Q    E  E   
----------------------|----------------------|----------------------|
----------------------|----------------------|----------------------|
----------------------|--2--------2----2--2--|--0--------0----0--0--|
--2--------2----2--2--|----------------------|----------------------|


                                                Break B                  
  H        Q    E  E     H        Q    E  E     Q       E  E  Q    Q     
----------------------|----------------------|--------------------------|
----------------------|----------------------|--------------------------|
----------------------|----------------------|--2-------2--2--2----2----|
--3--------3----3--3--|--2--------2----2--2--|--------------------------|


  E  E  Q    H           Q    E  E  Q    Q       E  E  Q    Q    Q     
----------------------|-----------------------|-----------------------|
----------------------|-----------------------|-----------------------|
--2--2--2----0--------|--2----2--2--2----2----|--2--2--2----0----0----|
----------------------|-----------------------|-----------------------|


  Q    E  E  Q    Q       E  E  Q    Q    Q       Q    E  E  Q    Q     
-----------------------|-----------------------|-----------------------|
-----------------------|-----------------------|-----------------------|
--2----2--2--2----2----|--2--2--2---------0----|--2----2--2--2----2----|
-----------------------|-------------2---------|-----------------------|


                         Interludio 1 (a)                 
  E  E  Q    H           Q                H        E  E   
----------------------|----------------------------------|
----------------------|----------------------------------|
--2--2--2----2--------|--2----------------------------0--|
----------------------|----------------------------------|


  Q    H        E  E     Q    H        E  E     E  E  E  E  E  E  E  E   
----------------------|----------------------|--------------------------|
----------------------|----------------------|-----------2--4--2--------|
--2----------------0--|--2----------------0--|--2--4--5-----------5--0--|
----------------------|----------------------|--------------------------|


  Q    H        E  E     Q    H        E  E     Q    H        E  E   
----------------------|----------------------|----------------------|
----------------------|----------------------|----------------------|
--2----------------0--|--2----------------0--|--2----------------0--|
----------------------|----------------------|----------------------|


                             Interludio 1 (b)                 
  E  E  E  E  E  E  E  E     Q                H        E  E   
--------------------------|----------------------------------|
-----------2--4--2--------|----------------------------------|
--2--4--5-----------5--4--|--5----------------------------4--|
--------------------------|----------------------------------|


  Q    H        E  E     Q    H        E  E     E  E  E  E  E  E  E  E   
----------------------|----------------------|--------------------------|
----------------------|----------------------|--------4--5--7--5--4-----|
--5----------------4--|--5----------------4--|--5--7-----------------4--|
----------------------|----------------------|--------------------------|


  Q    H        E  E     Q    H        E  E     Q    H        E  E   
----------------------|----------------------|----------------------|
----------------------|----------------------|----------------------|
--5----------------4--|--5----------------4--|--5----------------4--|
----------------------|----------------------|----------------------|


                             Interludio 2 (a)                    
  E  E  E  E  E  E  E  E     Q                E  E  E  E  E  E   
--------------------------|-------------------------------------|
--------4--5--7--5--4-----|-------------------------------------|
--5--7-----------------0--|--2----------------2--2--2--4--0--2--|
--------------------------|-------------------------------------|


  E  E  E  E  E  E  E  E     E  E  E  E  E  E  E  E   
--------------------------|--------------------------|
--------------------------|--------------------------|
--L--2--2--2--2--4--0--2--|--L--2--2--2--2--4--0--2--|
--------------------------|--------------------------|


  E  E  E  E  E  E  E  E     Q    E  E  E  E  E  E     Q    E  E  E  E  E  E   
--------------------------|-------------------------|-------------------------|
-----------2--4--2--------|-------------------------|-------------------------|
--L--4--5-----------5--0--|--2----5--2--4--5--L--0--|--2----5--2--4--5--L--0--|
--------------------------|-------------------------|-------------------------|


  Q    E  E  E  E  E  E     E  E  E  E  E  E  E  E   
-------------------------|--------------------------|
-------------------------|-----------2--4--2--------|
--2----5--2--4--5--L--0--|--2--4--5-----------5--4--|
-------------------------|--------------------------|


  Interludio 2 (b)                                               
  Q                E  E  E  E  E  E     E  E  E  E  E  E  E  E   
-------------------------------------|--------------------------|
-------------------------------------|--------------------------|
--5----------------5--5--5--7--4--5--|--L--5--5--5--5--7--4--5--|
-------------------------------------|--------------------------|


  E  E  E  E  E  E  E  E     E  E  E  E  E  E  E  E     Q    E  E  E  E  E  E   
--------------------------|--------------------------|-------------------------|
--------------------------|--------4--5--7--5--4-----|-------4--------4--L-----|
--L--5--5--5--5--7--4--5--|--L--7-----------------4--|--5-------5--7--------4--|
--------------------------|--------------------------|-------------------------|


  Q    E  E  E  E  E  E     Q    E  E  E  E  E  E     E  E  E  E  E  E  E  E   
-------------------------|-------------------------|--------------------------|
-------4--------4--L-----|-------4--------4--L-----|--------4--5--7--5--4-----|
--5-------5--7--------4--|--5-------5--7--------4--|--5--7-----------------0--|
-------------------------|-------------------------|--------------------------|


  Riff E                                                               
  Q      H        E  E     Q    H        E  E     Q    H        E  E   
------------------------|----------------------|----------------------|
------------------------|----------------------|----------------------|
--2------2--------2--2--|--0----0--------0--0--|----------------------|
------------------------|----------------------|--2----2--------2--2--|


  Q    H        E  E     Q    H        E  E     Q    H        E  E   
----------------------|----------------------|----------------------|
----------------------|----------------------|----------------------|
----------------------|--2----2--------2--2--|--0----0--------0--0--|
--3----3--------3--3--|----------------------|----------------------|


                                               Verso C (a)                 
  Q    H        E  E     Q    H        Q       Q           H        E  E   
----------------------|---------------------|-----------------------------|
----------------------|---------------------|-----------------------------|
----------------------|---------------------|--2-----------2--------2--2--|
--2----2--------2--2--|--3----3--------3----|-----------------------------|


  Q    H        E  E     Q    H        E  E     Q    H        E  E   
----------------------|----------------------|----------------------|
----------------------|----------------------|----------------------|
--0----0--------0--0--|----------------------|----------------------|
----------------------|--2----2--------2--2--|--3----3--------3--3--|


  Q    H        E  E     Q    H        E  E     Q    H        E  E   
----------------------|----------------------|----------------------|
----------------------|----------------------|----------------------|
--2----2--------2--2--|--0----0--------0--0--|----------------------|
----------------------|----------------------|--2----2--------2--2--|


  Q.     E  E  Q.        Q    H        E  E     Q    H        E  E   
----------------------|----------------------|----------------------|
----------------------|----------------------|----------------------|
----------------------|--2----2--------2--2--|--0----0--------0--0--|
--3------3--5--3------|----------------------|----------------------|


  Q    H        E  E     Q    H        E  E     Q    H        E  E   
----------------------|----------------------|----------------------|
----------------------|----------------------|----------------------|
----------------------|----------------------|--2----2--------2--2--|
--2----2--------2--2--|--3----3--------3--3--|----------------------|


  Q    H        E  E     Q    H        E  E     Q.     E  E  Q.      
----------------------|----------------------|----------------------|
----------------------|----------------------|----------------------|
--0----0--------0--0--|----------------------|----------------------|
----------------------|--2----2--------2--2--|--3------3--5--3------|


  Break C                                                              
  Q       E  E  Q    Q       W                   Q    E  E  Q    Q     
----------------4---------|-------------------|-------------2---------|
--------------------------|-------------------|-----------------------|
--2-------L--2--L----2----|--L----------------|--0----L--0--L----0----|
--------------------------|-------------------|-----------------------|


  W                   Q    E  E  Q    Q       W                 
-------------------|-----------------------|-------------------|
-------------------|-------------5---------|-------------------|
--L----------------|-----------------------|-------------------|
-------------------|--3----L--L--L----3----|--L----------------|


  Verso C (b)                                                               
  Q           H        E  E     Q    H        E  E     Q    H        E  E   
-----------------------------|----------------------|----------------------|
-----------------------------|----------------------|----------------------|
--2-----------2--------2--2--|--0----0--------0--0--|----------------------|
-----------------------------|----------------------|--2----2--------2--2--|


  Q    H        E  E     Q    H        E  E     Q    H        E  E   
----------------------|----------------------|----------------------|
----------------------|----------------------|----------------------|
----------------------|--2----2--------2--2--|--0----0--------0--0--|
--3----3--------3--3--|----------------------|----------------------|


  Q    H        E  E     Q.     E  E  Q.        Q    H        E  E   
----------------------|----------------------|----------------------|
----------------------|----------------------|----------------------|
----------------------|----------------------|--2----2--------2--2--|
--2----2--------2--2--|--3------3--5--3------|----------------------|


  Q    H        E  E     Q    H        E  E     Q    H        E  E   
----------------------|----------------------|----------------------|
----------------------|----------------------|----------------------|
--0----0--------0--0--|----------------------|----------------------|
----------------------|--2----2--------2--2--|--3----3--------3--3--|


  Q    H        E  E     Q    H        E  E     Q    E  E  E  E  E  E   
----------------------|----------------------|-------------------------|
----------------------|----------------------|-------------------------|
--2----2--------2--2--|--0----0--------0--0--|-------------------------|
----------------------|----------------------|--2----2--2--2--2--2--2--|


                             Main Riff                       
  E  E  E  E  E  E  E  E     E         E  E  E  E  E  E  E   
--------------------------|---------------------------------|
--------------------------|---------------------------------|
--------------------------|---------------------------------|
--3--3--3--3--5--5--5--5--|--L---------3--5--5--3--5--5--5--|


  E  E  E  E  E  E  E  E     E  E  E  E  E  E  E  E   
--------------------------|--------------------------|
--------------------------|--------------------------|
-----------------------3--|--L-----------------------|
--3--5--5--5--3--5--5-----|-----5--5--5--3--5--5--5--|


  E  E  E  E  E  E  E  E     E  E  E  E  E  E  E  E   
--------------------------|--------------------------|
--------------------------|--------------------------|
-----------------------3--|--L-----------------------|
--3--5--5--5--3--5--5-----|-----5--5--5--3--5--5--5--|


  E  E  E  E  E  E  E  E     E  E  E  E  E  E  E  E     E  E  E  E  E  E  Q     
--------------------------|--------------------------|-------------------------|
--------------------------|--------------------------|-------------------------|
--------------------------|--------------------------|-------------------------|
--5--7--7--5--6--6--3--5--|--L--5--5--5--5--5--5--5--|--5--5--5--5--5--5--3----|


  Q    E  E  E  E  E  E     E  E  E  E  E  E  E  E     E  E  E  E  E  E  E  E   
-------------------------|--------------------------|--------------------------|
-------------------------|--------------------------|--------------------------|
-------------------------|--------------------5--3--|--L-----------------------|
--5----5--5--5--3--5--5--|--3--5--5--5--3--5--------|-----5--5--5--3--5--5--5--|


  E  E  E  E  E  E  E  E     E  E  E  E  E  E  E  E   
--------------------------|--------------------------|
--------------------------|--------------------------|
--------------------5--3--|--L-----------------------|
--3--5--5--5--3--5--------|-----5--5--5--3--5--5--5--|


  E  E  E  E  E  E  E  E     E  E  E  E  E  E  E  E   
--------------------------|--------------------------|
--------------------------|--------------------------|
--------------------------|--------------------------|
--5--7--6--5--6--5--3--5--|--L--5--5--5--5--5--5--5--|


                             Outro A                   
  E  E  E  E  E  E  E  E     Q       E  E  E  Q    E   
--------------------------|---------------------------|
--------------------------|---------------------------|
-----------------------0--|--2-------5--2--4--5----2--|
--5--5--5--5--5--5--3-----|---------------------------|


  E  E  E  E  E  E  E  E     Q    E  E  E  Q    E     E  E  E  E  E  Q    E   
--------------------------|------------------------|-------------------------|
--------------------------|-------4--------4-------|--7-----5-----4--5----4--|
--2--2--2--2--2--2--2--4--|--5-------5--7-------5--|-----5-----5-------------|
--------------------------|------------------------|----------------------2--|


                                                     Outro B            
  Q    E  E  E  Q    E     E  E  E  E  E  E  Q       H        H         
------------------------|-------------------------|--------------------|
------------------------|-------------------------|--------------------|
-------5--2--4--5-------|-------------------------|--7--------7--------|
--3------------------3--|--3--3--3--3--3--3--3----|--0--------0--------|


  H        H           H.           S S S S    S S S S S S S S S S S S S S S S  
--------------------|-----------------------|----------------------------------|
--------------------|-----------------------|----------------------------------|
--7--------7--------|--7--------------7---7-|----7---7---7---7---7---7---7---7-|
--0--------0--------|--0------------0---0---|--0---0---0---0---0---0---0---0---|


  |--3--|   |--3--|   |--3--|                                  
  E  E  E   E  E  E   E  E  E  Q       Q.     E  E   E  E  E   
-------------------------8--9--L----|--L------9--7---------7--|
---------------7--9--10-------------|---------------10--9-----|
-----7--9--10-----------------------|-------------------------|
--0---------------------------------|-------------------------|


                                |-----3----|    |-----3----|     
   E  E  E   E  E  E   E  E     Q     Q    Q    Q     Q    Q     
-----------------------------|----------------------------------|
--10--9--7--10--9--7------9--|--7---------------7---------------|
----------------------10-----|-------10----9---------10----9----|
-----------------------------|----------------------------------|


  Q     Q    Q    Q       W                   H        H          
-----------------------|-------------------|--9-----------------||
-----------------------|-------------------|--9-----------------||
--7----10----9----7----|--6----------------|--7-----------------||
-----------------------|-------------------|--0-----------------||




Duration Legend
---------------
W - whole
H - half
Q - quarter
E - 8th
S - 16th
T - 32nd
X - 64th
. - note dotted
|-n-|  - n-tuplets


Tablature Legend
----------------
L - tied note
x - dead note
g - grace note
(n) - ghost note
> - accentuded note
NH - natural harmonic
AH - artificial harmonic
TH - tapped harmonic
SH - semi harmonic
PH - pitch harmonic
h - hammer on
p - pull off
b - bend
br - bendRelease
pb - preBend
pbr - preBendRelease
brb - bendReleaseBend
\n/ - tremolo bar dip
\n - tremolo bar dive
-/n - tremolo bar Release up
/n\ - tremolo bar inverted dip
/n - tremolo bar return
-\n - tremolo bar Release down
S - shift slide
s - legato slide
/ -  slide into from below or out of upwards
\ -  slide into from above or out of downwards
~ - vibrato
W - wide vibrato
tr - trill
TP - tremolo picking
T - tapping
S - slap
P - pop
< - fade in
^ - brush up
v - brush down
Suggest correction
Creating personal tab
Creating personal tab
You can edit any tab online and save it as your Personal.

You can edit, replace or remove any tab part or add personal notes – all changes will be seen only by you.

Personal tabs can be accessed anytime from any device, even offline.
Learn more »
comments
print report bad tab
guest
You may want to rate the tab now too:
select rating
Wanna post a correction for this tab? Suggest correction