Oops, an error
Loading. Please wait.

Saviour bass

version 1
version 1

Whole song

Interactive

18 views 1 this week
no commentswrite comment
1 2 3 4 5
x 11
add to favorites
×
Save as Personal and add changes to this tab that will be seen only by you. Learn more ›
×
You can save this tab as Personal to edit and correct it or add notes. All changes will be seen only by you. Learn more »
launch autoscroll
font size
0
reset
guitar tuner
edit
Autoscroll
slow
fast
+/-
esc
set tempo
stop
Author
Difficulty
                                    Saviour                                     


                                   Blitzkrieg
Mick Moore


          Intro                                                        
     S    H.            Q        W                   W                 
G||----|----------------------|-------------------|-------------------|
D||----|----------------------|-------------------|-------------------|
A||----|----------------------|--7----------------|--L----------------|
E||----|---------------12\----|--0----------------|--L----------------|


  W                   W                   W                   W                 
-------------------|-------------------|-------------------|-------------------|
-------------------|-------------------|-------------------|-------------------|
--7----------------|--L----------------|--7----------------|--L----------------|
--0----------------|--L----------------|--0----------------|--L----------------|


                                          Main Riff                       
  W                   W                   E         E  E  E  E  E  E  E   
-------------------|-------------------|---------------------------------|
-------------------|-------------------|---------------------------------|
--7----------------|--L----------------|--5---------7--7--7--7--7--7--7--|
--0----------------|--L----------------|---------------------------------|


  Q    E  Q    E  E  E     E  E  E  E  E  E  E  E     E  E  E  E  E  E  E  E   
------------------------|--------------------------|--------------------------|
------------------------|--------------------------|--------------------------|
--7----7--7----7--7--7--|--5--7--7--7--5--7--7--7--|--5--7--7--7--7--7--5--7--|
------------------------|--------------------------|--------------------------|


  E  E  E  E  E  E  E  E     Q    E  Q    E  E  E     E  E  E  E  E  E  E  E   
--------------------------|------------------------|--------------------------|
--------------------------|------------------------|--------------------------|
--7--7--7--7--7--7--7--7--|--7----7--7----7--7--7--|--5--7--7--7--5--7--7--7--|
--------------------------|------------------------|--------------------------|


                             Verso                                            
  E  E  E  E  E  E  E  E     Q     E  Q    E  E  E     Q    E  Q    E  E  E   
--------------------------|-------------------------|------------------------|
--------------------------|-------------------------|------------------------|
--5--7--7--7--7--7--5--7--|--2-----2--2----2--2--2--|--2----2--2----2--5--2--|
--------------------------|-------------------------|------------------------|


  Q    E  Q    E  E  E     Q    E  Q    E  E  E     Q    E  Q    E  E  E   
------------------------|------------------------|------------------------|
------------------------|------------------5-----|------------------------|
--0----0--0----0--0--0--|--0----0--0----7-----5--|--7----7--7----5--7--7--|
------------------------|------------------------|------------------------|


  Q    E  Q    E  E  E     Q    E  Q    E  E  E     E  E  E  Q    E  Q     
------------------------|------------------------|------------------------|
------------------------|------------------------|------------------------|
--7----7--7----5--7--7--|--7----7--7----5--7--7--|--5--7--7--7----7--5----|
------------------------|------------------------|------------------------|


  Q    E  Q    E  E  E     Q    E  Q    E  E  E     Q    E  Q    E  E  E   
------------------------|------------------------|------------------------|
------------------------|------------------------|------------------------|
--2----2--2----2--2--2--|--2----2--2----2--5--2--|--0----0--0----0--0--0--|
------------------------|------------------------|------------------------|


  Q    E  Q    E  Q       Q    E  Q    E  E  E     Q    E  Q    E  E  E   
-----------------------|------------------------|------------------------|
-----------------------|------------------------|------------------------|
--0----0--0-------5----|--7----7--7----5--7--7--|--7----7--7----7--7--7--|
---------------7-------|------------------------|------------------------|


  E  E  E  Q    E  Q       Q    E  Q    E  Q       Q    E  Q    E  E  E   
------------------------|-----------------------|------------------------|
------------------------|-----------------------|------------------------|
--5--7--7--7----7--7----|--7----7--7----7--5----|--2----2--2----2--2--2--|
------------------------|-----------------------|------------------------|


  Q    E  Q    E  E  E     Q    E  Q    E  E  E     Q    E  Q    E  E  E   
------------------------|------------------------|------------------------|
------------------------|------------------------|------------------5-----|
--2----2--2----2--5--2--|--0----0--0----0--0--0--|--0----0--0----7-----5--|
------------------------|------------------------|------------------------|


  Q    E  Q    E  E  E     Q    E  Q    E  E  E     Q    E  Q    E  E  E   
------------------------|------------------------|------------------------|
------------------------|------------------------|------------------------|
--7----7--7----5--7--7--|--7----7--7----5--7--7--|--7----7--7----5--7--7--|
------------------------|------------------------|------------------------|


                           Pre-Coro                                           
  E  E  E  Q    E  Q       Q        E  Q    E  E  E     Q    E  Q    Q    E   
------------------------|----------------------------|-----------------------|
------------------------|----------------------------|-----------------------|
--5--7--7--7----7--0----|--2--------0--2----2--2--2--|--2----2--0----0----0--|
------------------------|----------------------------|-----------------------|


  Q    E  Q    E  E  E     Q    E  Q    Q    E     Q    E  Q    E  E  E   
------------------------|-----------------------|------------------------|
------------------------|-----------------------|------------------------|
--2----0--2----2--2--2--|--2----2--0----0----0--|--2----0--2----2--2--2--|
------------------------|-----------------------|------------------------|


  Q    E  Q    Q    E     Q    E  Q    E  E  E     Q    E  Q    Q    E   
-----------------------|------------------------|-----------------------|
-----------------------|------------------------|-----------------------|
--2----2--0----0----0--|--2----0--2----2--2--2--|--2----2--0----0----0--|
-----------------------|------------------------|-----------------------|


  Coro                                                                      
  Q    E  E  E  E  E  E     Q    E  Q    E  Q       Q    E  E  E  E  E  E   
-------------------------|-----------------------|-------------------------|
-------------------------|--5-------5------------|-------------------------|
--7----7--7--7--7--7--7--|-------7-------7--5----|--7----7--7--7--7--7--7--|
-------------------------|-----------------------|-------------------------|


  E  E  E  Q    E  Q       Q    E  E  E  E  E  E     E  E  E  E  E  E  E  E   
------------------------|-------------------------|--------------------------|
--5--------7----5-------|-------------------------|--5--------5--------------|
-----7--7----------5----|--7----7--7--7--7--7--7--|-----7--7-----7--7-----5--|
------------------------|-------------------------|--------------------7-----|


                                                    Pre-Coro                   
  Q    E  E  E  E  E  E     Q    E  Q    E  Q       Q        E  Q    E  E  E   
-------------------------|-----------------------|----------------------------|
-------------------------|--5-------5------------|----------------------------|
--7----7--7--7--7--7--7--|-------7-------7--5----|--2--------0--2----2--2--2--|
-------------------------|-----------------------|----------------------------|


  Q    E  Q    Q    E     Q    E  Q    E  E  E     Q    E  Q    Q    E   
-----------------------|------------------------|-----------------------|
-----------------------|------------------------|-----------------------|
--2----2--0----0----0--|--2----0--2----2--2--2--|--2----2--0----0----0--|
-----------------------|------------------------|-----------------------|


                                                   Puente              
  Q    E  Q    E  E  E     Q    E  Q    Q    E     Q.     Q.     Q     
------------------------|-----------------------|---------------------|
------------------------|-----------------------|---------------------|
--2----0--2----2--2--2--|--2----2--0----0----0--|--7------8------9----|
------------------------|-----------------------|---------------------|


  E   E   Q     Q     Q        Q.      Q.      Q     
---------------------------|------------------------|
---------------------------|------------------------|
--L--10---L----11----12----|--13------14------15----|
---------------------------|------------------------|


                                Intro Riff                            
   E   E   Q     Q     Q        W                   W                 
----------------------------|--------------------|-------------------|
----------------------------|--------------------|-------------------|
---L--16---L----17----18----|--19----------------|--L----------------|
----------------------------|---0----------------|--L----------------|


  W                   W                   W                   W                 
-------------------|-------------------|-------------------|-------------------|
-------------------|-------------------|-------------------|-------------------|
--7----------------|--L----------------|--7----------------|--L----------------|
--0----------------|--L----------------|--0----------------|--L----------------|


                                          Main Riff                       
  W                   W                   E         E  E  E  E  E  E  E   
-------------------|-------------------|---------------------------------|
-------------------|-------------------|---------------------------------|
--7----------------|--L----------------|--5---------7--7--7--7--7--7--7--|
--0----------------|--L----------------|---------------------------------|


  Q    E  Q    E  E  E     E  E  E  E  E  E  E  E     E  E  E  E  E  E  E  E   
------------------------|--------------------------|--------------------------|
------------------------|--------------------------|--------------------------|
--7----7--7----7--7--7--|--5--7--7--7--5--7--7--7--|--5--7--7--7--7--7--5--7--|
------------------------|--------------------------|--------------------------|


  E  E  E  E  E  E  E  E     Q    E  Q    E  E  E     E  E  E  E  E  E  E  E   
--------------------------|------------------------|--------------------------|
--------------------------|------------------------|--------------------------|
--7--7--7--7--7--7--7--7--|--7----7--7----7--7--7--|--5--7--7--7--5--7--7--7--|
--------------------------|------------------------|--------------------------|


                             Verso                                            
  E  E  E  E  E  E  E  E     Q     E  Q    E  E  E     Q    E  Q    E  E  E   
--------------------------|-------------------------|------------------------|
--------------------------|-------------------------|------------------------|
--5--7--7--7--7--7--5--7--|--2-----2--2----2--2--2--|--2----2--2----2--5--2--|
--------------------------|-------------------------|------------------------|


  Q    E  Q    E  E  E     Q    E  Q    E  E  E     Q    E  Q    E  E  E   
------------------------|------------------------|------------------------|
------------------------|------------------5-----|------------------------|
--0----0--0----0--0--0--|--0----0--0----7-----5--|--7----7--7----5--7--7--|
------------------------|------------------------|------------------------|


  Q    E  Q    E  E  E     Q    E  Q    E  E  E     E  E  E  Q    E  Q     
------------------------|------------------------|------------------------|
------------------------|------------------------|------------------------|
--7----7--7----5--7--7--|--7----7--7----5--7--7--|--5--7--7--7----7--5----|
------------------------|------------------------|------------------------|


  Q    E  Q    E  E  E     Q    E  Q    E  E  E     Q    E  Q    E  E  E   
------------------------|------------------------|------------------------|
------------------------|------------------------|------------------------|
--2----2--2----2--2--2--|--2----2--2----2--5--2--|--0----0--0----0--0--0--|
------------------------|------------------------|------------------------|


  Q    E  Q    E  Q       Q    E  Q    E  E  E     Q    E  Q    E  E  E   
-----------------------|------------------------|------------------------|
-----------------------|------------------------|------------------------|
--0----0--0-------5----|--7----7--7----5--7--7--|--7----7--7----7--7--7--|
---------------7-------|------------------------|------------------------|


  E  E  E  Q    E  Q       Q    E  Q    E  Q       Q    E  Q    E  E  E   
------------------------|-----------------------|------------------------|
------------------------|-----------------------|------------------------|
--5--7--7--7----7--7----|--7----7--7----7--5----|--2----2--2----2--2--2--|
------------------------|-----------------------|------------------------|


  Q    E  Q    E  E  E     Q    E  Q    E  E  E     Q    E  Q    E  E  E   
------------------------|------------------------|------------------------|
------------------------|------------------------|------------------5-----|
--2----2--2----2--5--2--|--0----0--0----0--0--0--|--0----0--0----7-----5--|
------------------------|------------------------|------------------------|


  Q    E  Q    E  E  E     Q    E  Q    E  E  E     Q    E  Q    E  E  E   
------------------------|------------------------|------------------------|
------------------------|------------------------|------------------------|
--7----7--7----5--7--7--|--7----7--7----5--7--7--|--7----7--7----5--7--7--|
------------------------|------------------------|------------------------|


                           Pre-Coro                                           
  E  E  E  Q    E  Q       Q        E  Q    E  E  E     Q    E  Q    Q    E   
------------------------|----------------------------|-----------------------|
------------------------|----------------------------|-----------------------|
--5--7--7--7----7--0----|--2--------0--2----2--2--2--|--2----2--0----0----0--|
------------------------|----------------------------|-----------------------|


  Q    E  Q    E  E  E     Q    E  Q    Q    E     Q    E  Q    E  E  E   
------------------------|-----------------------|------------------------|
------------------------|-----------------------|------------------------|
--2----0--2----2--2--2--|--2----2--0----0----0--|--2----0--2----2--2--2--|
------------------------|-----------------------|------------------------|


  Q    E  Q    Q    E     Q    E  Q    E  E  E     Q    E  Q    Q    E   
-----------------------|------------------------|-----------------------|
-----------------------|------------------------|-----------------------|
--2----2--0----0----0--|--2----0--2----2--2--2--|--2----2--0----0----0--|
-----------------------|------------------------|-----------------------|


  Coro                                                                      
  Q    E  E  E  E  E  E     Q    E  Q    E  Q       Q    E  E  E  E  E  E   
-------------------------|-----------------------|-------------------------|
-------------------------|--5-------5------------|-------------------------|
--7----7--7--7--7--7--7--|-------7-------7--5----|--7----7--7--7--7--7--7--|
-------------------------|-----------------------|-------------------------|


  E  E  E  Q    E  Q       Q    E  E  E  E  E  E     E  E  E  E  E  E  E  E   
------------------------|-------------------------|--------------------------|
--5--------7----5-------|-------------------------|--5--------5--------------|
-----7--7----------5----|--7----7--7--7--7--7--7--|-----7--7-----7--7-----5--|
------------------------|-------------------------|--------------------7-----|


                                                    Pre-Coro                   
  Q    E  E  E  E  E  E     Q    E  Q    E  Q       Q        E  Q    E  E  E   
-------------------------|-----------------------|----------------------------|
-------------------------|--5-------5------------|----------------------------|
--7----7--7--7--7--7--7--|-------7-------7--5----|--2--------0--2----2--2--2--|
-------------------------|-----------------------|----------------------------|


  Q    E  Q    Q    E     Q    E  Q    E  E  E     Q    E  Q    Q    E   
-----------------------|------------------------|-----------------------|
-----------------------|------------------------|-----------------------|
--2----2--0----0----0--|--2----0--2----2--2--2--|--2----2--0----0----0--|
-----------------------|------------------------|-----------------------|


                                                   Puente              
  Q    E  Q    E  E  E     Q    E  Q    Q    E     Q.     Q.     Q     
------------------------|-----------------------|---------------------|
------------------------|-----------------------|---------------------|
--2----0--2----2--2--2--|--2----2--0----0----0--|--7------8------9----|
------------------------|-----------------------|---------------------|


  E   E   Q     Q     Q        Q.      Q.      Q     
---------------------------|------------------------|
---------------------------|------------------------|
--L--10---L----11----12----|--13------14------15----|
---------------------------|------------------------|


                                Intro Riff                            
   E   E   Q     Q     Q        W                   W                 
----------------------------|--------------------|-------------------|
----------------------------|--------------------|-------------------|
---L--16---L----17----18----|--19----------------|--L----------------|
----------------------------|---0----------------|--L----------------|


  W                   W                   W                   W                 
-------------------|-------------------|-------------------|-------------------|
-------------------|-------------------|-------------------|-------------------|
--7----------------|--L----------------|--7----------------|--L----------------|
--0----------------|--L----------------|--0----------------|--L----------------|


  W                   W                 
-------------------|-------------------|
-------------------|-------------------|
--7----------------|--L----------------|
--0----------------|--L----------------|


  Solo Mick Procter                                                
  E                 E  E  E  E  E  E  E     E  E  E  Q    E  Q     
-----------------------------------------|------------------------|
-----------------------------------------|------------------------|
--5-----------------7--7--7--5--7--7--7--|--5--7--7--7----7--7----|
-----------------------------------------|------------------------|


  E  E  E  E  E  E  E  E     E  E  E  Q    E  Q       E  E  E  E  E  E  E  E   
--------------------------|------------------------|--------------------------|
--------------------------|------------------------|--------------------------|
--5--7--7--7--5--7--7--7--|--5--7--7--7----7--5----|--5--7--7--7--5--7--7--7--|
--------------------------|------------------------|--------------------------|


  E  E  E  Q    E  Q       E  E  E  E  E  E  E  E     E  Q    Q     E   Q     
------------------------|--------------------------|-------------------------|
------------------------|--------------------------|--5--7----9----11--12----|
--5--7--7--7----7--7----|--5--7--7--7--5--7--7--7--|-------------------------|
------------------------|--------------------------|-------------------------|


  E  E  E  E  E  E  E  E     E  E  E  Q    E  Q       E  E  E  E  E  E  E  E   
--------------------------|------------------------|--------------------------|
--------------------------|------------------------|--------------------------|
--5--7--7--7--5--7--7--7--|--5--7--7--7----7--7----|--5--7--7--7--5--7--7--7--|
--------------------------|------------------------|--------------------------|


  E  E  E  Q    E  Q       E  E  E  E  E  E  E  E     E  E  E  Q    E  Q     
------------------------|--------------------------|------------------------|
------------------------|--------------------------|------------------------|
--5--7--7--7----7--5----|--5--7--7--7--5--7--7--7--|--5--7--7--7----7--7----|
------------------------|--------------------------|------------------------|


  E  E  E  E  E  E  E  E     E  Q    Q     E   Q       E  E  E  E  E  E  E  E   
--------------------------|-------------------------|--------------------------|
--------------------------|--5--7----9----11--12----|--------------------------|
--5--7--7--7--5--7--7--7--|-------------------------|--5--7--7--7--5--7--7--7--|
--------------------------|-------------------------|--------------------------|


  E  E  E  Q    E  Q       E  E  E  E  E  E  E  E     E  E  E  Q    E  Q     
------------------------|--------------------------|------------------------|
------------------------|--------------------------|------------------------|
--5--7--7--7----7--7----|--5--7--7--7--5--7--7--7--|--5--7--7--7----7--5----|
------------------------|--------------------------|------------------------|


  E  E  E  E  E  E  E  E     E  E  E  Q    E  Q       E  E  E  E  E  E  E  E   
--------------------------|------------------------|--------------------------|
--------------------------|------------------------|--------------------------|
--5--7--7--7--5--7--7--7--|--5--7--7--7----7--7----|--5--7--7--7--5--7--7--7--|
--------------------------|------------------------|--------------------------|


                           Outro                                        
  E  E  E  Q    E  Q       Q     Q    Q    Q       Q    Q    Q    Q     
------------------------|-----------------------|----------------------|
------------------------|-----------------------|----------------------|
--5--7--7--7----7--5----|--7----------7---------|--7---------7---------|
------------------------|-----------------------|----------------------|


                               |--3--|  |--3--|   
  W                   H        E  E  E  E  E  E   
-------------------|-----------------------------|
-------------------|-----------------------------|
--7----------------|--L-----------7-----7-----7--|
--0----------------|--L--------0-----0-----0-----|


  |--3--|  |--3--|  |--3--|  |--3--|     |--3--|  |--3--|  |--3--|  |--3--|   
  E  E  E  E  E  E  E  E  E  E  E  E     E  E  E  E  E  E  E  E  E  E  E  E   
--------------------------------------|--------------------------------------|
--------------------------------------|--------------------------------------|
-----7-----7-----7-----7-----7-----7--|-----7-----7-----7-----7-----7-----7--|
--0-----0-----0-----0-----0-----0-----|--0-----0-----0-----0-----0-----0-----|


  |--3--|  |--3--|  |--3--|  |--3--|     |--3--|  |--3--|  |--3--|  |--3--|   
  E  E  E  E  E  E  E  E  E  E  E  E     E  E  E  E  E  E  E  E  E  E  E  E   
--------------------------------------|--------------------------------------|
--------------------------------------|--------------------------------------|
-----7-----7-----7-----7-----7-----7--|-----7-----7-----7-----7-----7-----7--|
--0-----0-----0-----0-----0-----0-----|--0-----0-----0-----0-----0-----0-----|


  |--3--|  |--3--|  |--3--|  |--3--|     |------3------|  |--3-|  |-3|     
  E  E  E  E  E  E  E  E  E  E  E  E     E  E  Q    E  E  Q    E  E  Q     
--------------------------------------|-----------------------------------|
--------------------------------------|-----------------------------------|
-----7-----7-----7-----7-----7-----7--|-----------------------------------|
--0-----0-----0-----0-----0-----0-----|--7--5--L----7--5--L----7--5--L----|


  |------3------|  |--3-|  |-3|       |------3------|  |--3-|  |-3|     
  E  E  Q    E  E  Q    E  E  Q       E  E  Q    E  E  Q    E  E  Q     
-----------------------------------|-----------------------------------|
-----------------------------------|-----------------------------------|
-----------------------------------|-----------------------------------|
--7--5--L----7--5--L----7--5--L----|--7--5--L----7--5--L----7--5--L----|


  |------3------|  |--3-|  |-3|       |------3------|  |--3-|  |-3|     
  E  E  Q    E  E  Q    E  E  Q       E  E  Q    E  E  Q    E  E  Q     
-----------------------------------|-----------------------------------|
-----------------------------------|-----------------------------------|
-----------------------------------|-----------------------------------|
--7--5--L----7--5--L----7--5--L----|--7--5--L----7--5--L----7--5--L----|


  |------3------|  |--3-|  |-3|       |------3------|  |--3-|  |-3|     
  E  E  Q    E  E  Q    E  E  Q       E  E  Q    E  E  Q    E  E  Q     
-----------------------------------|-----------------------------------|
-----------------------------------|-----------------------------------|
-----------------------------------|-----------------------------------|
--7--5--L----7--5--L----7--5--L----|--7--5--L----7--5--L----7--5--L----|


  H        H          
--------------------||
--------------------||
--------------------||
--7-----------------||




Duration Legend
---------------
W - whole
H - half
Q - quarter
E - 8th
S - 16th
T - 32nd
X - 64th
. - note dotted
|-n-|  - n-tuplets


Tablature Legend
----------------
L - tied note
x - dead note
g - grace note
(n) - ghost note
> - accentuded note
NH - natural harmonic
AH - artificial harmonic
TH - tapped harmonic
SH - semi harmonic
PH - pitch harmonic
h - hammer on
p - pull off
b - bend
br - bendRelease
pb - preBend
pbr - preBendRelease
brb - bendReleaseBend
\n/ - tremolo bar dip
\n - tremolo bar dive
-/n - tremolo bar Release up
/n\ - tremolo bar inverted dip
/n - tremolo bar return
-\n - tremolo bar Release down
S - shift slide
s - legato slide
/ -  slide into from below or out of upwards
\ -  slide into from above or out of downwards
~ - vibrato
W - wide vibrato
tr - trill
TP - tremolo picking
T - tapping
S - slap
P - pop
< - fade in
^ - brush up
v - brush down

            
            
Suggest correction
Creating personal tab
Creating personal tab
You can edit any tab online and save it as your Personal.

You can edit, replace or remove any tab part or add personal notes – all changes will be seen only by you.

Personal tabs can be accessed anytime from any device, even offline.
Learn more »
comments
print report bad tab
guest
You may want to rate the tab now too:
select rating
Wanna post a correction for this tab? Suggest correction