Oops, an error
Loading. Please wait.

Saviour drums

version 1
version 1

Whole song

Interactive

43 views 3 this week
no commentswrite comment
1 2 3 4 5
x 11
add to favorites
×
Save as Personal and add changes to this tab that will be seen only by you. Learn more ›
×
You can save this tab as Personal to edit and correct it or add notes. All changes will be seen only by you. Learn more »
launch autoscroll
font size
0
reset
guitar tuner
edit
Autoscroll
slow
fast
+/-
esc
set tempo
stop
Author
Difficulty
                                    Saviour                                     


                                  Blitzkrieg
Sean Taylor


           Intro                                              
     S     Q     Q     Q     Q        Q     Q     Q     Q     
C||----|--42----42----42----42----|--------42----42----42----|
C||----|--------------------------|--------------------------|
C||----|--------------------------|--57----------------------|
C||----|--------------------------|--49----------------------|
C||----|--------------------------|--36----------------------|
C||----|--------------------------|--------------------------|


   Q     Q     Q     S  S  E      Q     Q     Q     Q     
--42----42----42--------------|--------42----42----42----|
------------------------------|--------------------------|
--------------------47-45-43--|--57----------------------|
------------------------------|--49----------------------|
------------------------------|--36----------------------|
------------------------------|--------------------------|


   Q     Q     E   E      Q        Q     Q     Q     Q     
--42----42----42---------------|--------42----42----42----|
----------------------38g38----|--------------------------|
-------------------------------|--57----------------------|
-------------------------------|--49----------------------|
------------------36-----------|--36----------------------|
-------------------------------|--------------------------|


   Q     Q     Q     Q        Q     Q     Q     E   E   
--42----42----42----------|--------42----42----42------|
--------------------------|----------------------------|
--------------------------|--57------------------------|
--------------------------|--49------------------------|
--------------------36----|--36--------------------36--|
--------------------------|----------------------------|


                                        Main Riff                         
      E   E   E   E      E   Q.         E         E   Q     E   E   Q     
-------------42---------------------|----------------46----46------46----|
--38g38--------------38g38----------|----------------38------------38----|
------------------------------------|------------------------------------|
------------------------------------|--49--------------------------------|
---------36------36---------36------|--36--------36--------36--36--------|
------------------------------------|------------------------------------|


   E   E   Q     E   E   Q        E   E   Q     E   E   Q     
--46------46----46------46----|----------46----46------46----|
----------38------------38----|----------38------------38----|
------------------------------|------------------------------|
------------------------------|--57--------------------------|
--36--36--------36--36--------|--36--36--------36--36--------|
------------------------------|------------------------------|


   E   E   Q     E   E   Q        E   E   Q     E   E   Q     
--46------46----46------46----|----------46----46------46----|
----------38------------38----|----------38------------38----|
------------------------------|------------------------------|
------------------------------|--49--------------------------|
--36--36--------36--36--------|--36--36--------36--36--------|
------------------------------|------------------------------|


   E   E   Q     E   E   Q        E   E   Q     E   E   Q     
--46------46----46------46----|----------46----46------46----|
----------38------------38----|----------38------------38----|
------------------------------|------------------------------|
------------------------------|--57--------------------------|
--36--36--------36--36--------|--36--36--------36--36--------|
------------------------------|------------------------------|


                                  Verso                         
   E   E   Q     E   E   Q        E     E   Q     E   E   Q     
--46------46----46------46----|------------46----46------46----|
----------38------------38----|------------38------------38----|
------------------------------|--------------------------------|
------------------------------|--49----------------------------|
--36--36--------36--36--------|--36----36--------36--36--------|
------------------------------|--------------------------------|


   E   E   E   E   E   E   Q        E   E   Q     E   E   Q     
--46------46------46------46----|----------46----46------46----|
----------38--------------38----|----------38------------38----|
--------------------------------|------------------------------|
--------------------------------|--57--------------------------|
--36--36------36------36--------|--36--36--------36--36--------|
--------------------------------|------------------------------|


   E   E   E   E   E   E      E   E      E   E   Q     E   E   Q     
--46------46------46---------46------|----------46----46------46----|
----------38--------------38g38------|----------38------------38----|
-------------------------------------|------------------------------|
-------------------------------------|--49--------------------------|
--36--36------36------36---------36--|--36--36--------36--36--------|
-------------------------------------|------------------------------|


   E   E   E   E   E   E   Q        E   E   Q     E   E   Q     
--46------46------46------46----|----------46----46------46----|
----------38--------------38----|----------38------------38----|
--------------------------------|------------------------------|
--------------------------------|--57--------------------------|
--36--36------36------36--------|--36--36--------36--36--------|
--------------------------------|------------------------------|


   E   E   E   E   E   E      E   E      E   E   Q     E   E   Q     
--46------46------46---------46------|----------46----46------46----|
----------38--------------38g38------|----------38------------38----|
-------------------------------------|------------------------------|
-------------------------------------|--49--------------------------|
--36--36------36------36---------36--|--36--36--------36--36--------|
-------------------------------------|------------------------------|


   E   E   E   E   E   E   Q        E   E   Q     E   E   Q     
--46------46------46------46----|----------46----46------46----|
----------38--------------38----|----------38------------38----|
--------------------------------|------------------------------|
--------------------------------|--57--------------------------|
--36--36------36------36--------|--36--36--------36--36--------|
--------------------------------|------------------------------|


   E   E   E   E   E   E   E   E      E   E   Q     E   E   Q     
--46------46------46------46------|----------46----46------46----|
----------38--------------38------|----------38------------38----|
----------------------------------|------------------------------|
----------------------------------|--49--------------------------|
--36--36------36------36------36--|--36--36--------36--36--------|
----------------------------------|------------------------------|


   E   E   E   E   E   E   Q        E   E   Q     E   E   Q     
--46------46------46------46----|----------46----46------46----|
----------38--------------38----|----------38------------38----|
--------------------------------|------------------------------|
--------------------------------|--57--------------------------|
--36--36------36------36--------|--36--36--------36--36--------|
--------------------------------|------------------------------|


   E   E   E   E   E   E   E   E      E   E   Q     E   E   Q     
--46------46------46------46------|----------46----46------46----|
----------38--------------38------|----------38------------38----|
----------------------------------|------------------------------|
----------------------------------|--49--------------------------|
--36--36------36------36------36--|--36--36--------36--36--------|
----------------------------------|------------------------------|


   E   E   E   E   E   E   Q        E   E   Q     E   E   Q     
--46------46------46------46----|----------46----46------46----|
----------38--------------38----|----------38------------38----|
--------------------------------|------------------------------|
--------------------------------|--57--------------------------|
--36--36------36------36--------|--36--36--------36--36--------|
--------------------------------|------------------------------|


   E   E   E   E   E   E   E   E      E   E   Q     E   E   Q     
--46------46------46------46------|----------46----46------46----|
----------38--------------38------|----------38------------38----|
----------------------------------|------------------------------|
----------------------------------|--49--------------------------|
--36--36------36------36------36--|--36--36--------36--36--------|
----------------------------------|------------------------------|


   E   E   E   E   E   E   Q        E   E   Q     E   E   Q     
--46------46------46------46----|----------46----46------46----|
----------38--------------38----|----------38------------38----|
--------------------------------|------------------------------|
--------------------------------|--57--------------------------|
--36--36------36------36--------|--36--36--------36--36--------|
--------------------------------|------------------------------|


                                      Pre-Coro                         
   E   E   E   E   E   E   E   E      E        E   Q     E   E   Q     
--46------46------46------46------|---------------51----51------51----|
----------38--------------38------|---------------38------------38----|
----------------------------------|-----------------------------------|
----------------------------------|--49-------------------------------|
--36--36------36------36------36--|--36-------36--------36--36--------|
----------------------------------|-----------------------------------|


   E   E   E   E   E   E   Q        E   E   Q     E   E   Q     
--51------51------51------51----|----------51----51------51----|
----------38--------------38----|----------38------------38----|
--------------------------------|------------------------------|
--------------------------------|--57--------------------------|
--36--36------36------36--------|--36--36--------36--36--------|
--------------------------------|------------------------------|


   E   E   E   E   E   E   E   E      E   E   Q     E   E   Q     
--51------51------51------51------|----------51----51------51----|
----------38--------------38------|----------38------------38----|
----------------------------------|------------------------------|
----------------------------------|--49--------------------------|
--36--36------36------36------36--|--36--36--------36--36--------|
----------------------------------|------------------------------|


   E   E   E   E   E   E   Q        E   E   Q     E   E   Q     
--51------51------51------51----|----------51----51------51----|
----------38--------------38----|----------38------------38----|
--------------------------------|------------------------------|
--------------------------------|--57--------------------------|
--36--36------36------36--------|--36--36--------36--36--------|
--------------------------------|------------------------------|


                                      Coro                        
   E   E   E   E   E   E   E   E      Q     Q     E   E   E   E   
--51------51------51------51--51--|--------59----59--59--59--59--|
----------38--------------38------|--------38------------38------|
----------------------------------|------------------------------|
----------------------------------|--49--------------------------|
--36--36------36------36------36--|--36----------36--36------36--|
----------------------------------|------------------------------|


   Q     E   E   E   E   E   E      Q     Q     E   E   E   E   
--59----59------59------59--59--|--59----59----59--59--59--59--|
--------38--------------38------|--------38------------38------|
--------------------------------|------------------------------|
--------------------------------|------------------------------|
--36--------36------36------36--|--36----------36--36------36--|
--------------------------------|------------------------------|


   Q     E   E   E   E   E   E      Q     Q     E   E   E   E   
--59----59------59------59--59--|--------59----59--59--59--59--|
--------38--------------38------|--------38------------38------|
--------------------------------|------------------------------|
--------------------------------|--57--------------------------|
--36--------36------36------36--|--36----------36--36------36--|
--------------------------------|------------------------------|


   Q     E   E   E   E   E   E      Q     Q     E   E   E   E   
--59----59------59------59--59--|--59----59----59--59--59--59--|
--------38--------------38------|--------38------------38------|
--------------------------------|------------------------------|
--------------------------------|------------------------------|
--36--------36------36------36--|--36----------36--36------36--|
--------------------------------|------------------------------|


                                    Pre-Coro                         
   Q     E   E   E   E   E   E      E        E   Q     E   E   Q     
--59----59------59------59--59--|---------------51----51------51----|
--------38--------------38------|---------------38------------38----|
--------------------------------|-----------------------------------|
--------------------------------|--49-------------------------------|
--36--------36------36------36--|--36-------36--------36--36--------|
--------------------------------|-----------------------------------|


   E   E   E   E   E   E   Q        E   E   Q     E   E   Q     
--51------51------51------51----|----------51----51------51----|
----------38--------------38----|----------38------------38----|
--------------------------------|------------------------------|
--------------------------------|--57--------------------------|
--36--36------36------36--------|--36--36--------36--36--------|
--------------------------------|------------------------------|


   E   E   E   E   E   E   E   E      E   E   Q     E   E   Q     
--51------51------51------51------|----------51----51------51----|
----------38--------------38------|----------38------------38----|
----------------------------------|------------------------------|
----------------------------------|--49--------------------------|
--36--36------36------36------36--|--36--36--------36--36--------|
----------------------------------|------------------------------|


                                    Puente                           
   E   E   E   E   E   E   Q        E      E   E   E.   S  E   Q     
--51------51------51------51----|--59-------------59----------59----|
----------38--------------38----|-------------38----------38--------|
--------------------------------|-----------------------------------|
--------------------------------|--49-------------57----------55----|
--36--36------36------36--------|--36-----36------36---36-----36----|
--------------------------------|-----------------------------------|


   E   E   S  S  E   E   E   E   E      Q     E   E   E   E   Q     
------59------------59------59------|--59--------59----------59----|
--38------------38----------38------|--------38----------38--------|
------------------------------------|------------------------------|
------49------------57------55------|--49--------57----------55----|
------36--36-36-----36--36------36--|--36--------36--36------36----|
------------------------------------|------------------------------|


                                       Intro Riff                   
   E   E   S  S  E   Q        Q        Q          Q     Q     Q     
------59------------59-------59----|-------------42----42----42----|
--38------------38--------38g38----|-------------------------------|
-----------------------------------|--57---------------------------|
------49------------57-------55----|--49---------------------------|
------36--36-36-----36-------------|--36---------------------------|
-----------------------------------|-------------------------------|


   Q     Q     Q     S  S  E      Q     Q     Q     Q     
--42----42----42--------------|--------42----42----42----|
------------------------------|--------------------------|
--------------------43-43-43--|--57----------------------|
------------------------------|--49----------------------|
------------------------------|--36----------------------|
------------------------------|--------------------------|


   Q     Q     E   E      Q        Q     Q     Q     Q     
--42----42----42---------------|--------42----42----42----|
----------------------38g38----|--------------------------|
-------------------------------|--57----------------------|
-------------------------------|--49----------------------|
------------------36-----------|--36----------------------|
-------------------------------|--------------------------|


   Q     Q     Q     S  S  E      Q     Q     Q     E   E   
--42----42----42--------------|--------42----42----42------|
------------------------------|----------------------------|
--------------------41-41-41--|--57------------------------|
------------------------------|--49------------------------|
------------------------------|--36--------------------36--|
------------------------------|----------------------------|


      E   E   E      E   E   E      E   E   
-------------------------------------------|
--38g38----------38g38----------38g38------|
-------------------------------------------|
-------------------------------------------|
---------36--36---------36--36---------36--|
-------------------------------------------|


   Main Riff                                                        
   E         E   Q     E   E   Q        E   E   Q     E   E   Q     
----------------46----46------46----|--46------46----46------46----|
----------------38------------38----|----------38------------38----|
------------------------------------|------------------------------|
--49--------------------------------|------------------------------|
--36--------36--------36--36--------|--36--36--------36--36--------|
------------------------------------|------------------------------|


   E   E   Q     E   E   Q        E   E   Q     E   E   Q     
----------46----46------46----|--46------46----46------46----|
----------38------------38----|----------38------------38----|
------------------------------|------------------------------|
--57--------------------------|------------------------------|
--36--36--------36--36--------|--36--36--------36--36--------|
------------------------------|------------------------------|


   E   E   Q     E   E   Q        E   E   Q     E   E   Q     
----------46----46------46----|--46------46----46------46----|
----------38------------38----|----------38------------38----|
------------------------------|------------------------------|
--49--------------------------|------------------------------|
--36--36--------36--36--------|--36--36--------36--36--------|
------------------------------|------------------------------|


   E   E   Q     E   E   Q        E   E   Q     E   E   Q     
----------46----46------46----|--46------46----46------46----|
----------38------------38----|----------38------------38----|
------------------------------|------------------------------|
--57--------------------------|------------------------------|
--36--36--------36--36--------|--36--36--------36--36--------|
------------------------------|------------------------------|


   Verso                                                          
   E     E   Q     E   E   Q        E   E   E   E   E   E   Q     
------------46----46------46----|--46------46------46------46----|
------------38------------38----|----------38--------------38----|
--------------------------------|--------------------------------|
--49----------------------------|--------------------------------|
--36----36--------36--36--------|--36--36------36------36--------|
--------------------------------|--------------------------------|


   E   E   Q     E   E   Q        E   E   E   E   E   E      E   E   
----------46----46------46----|--46------46------46---------46------|
----------38------------38----|----------38--------------38g38------|
------------------------------|-------------------------------------|
--57--------------------------|-------------------------------------|
--36--36--------36--36--------|--36--36------36------36---------36--|
------------------------------|-------------------------------------|


   E   E   Q     E   E   Q        E   E   E   E   E   E   Q     
----------46----46------46----|--46------46------46------46----|
----------38------------38----|----------38--------------38----|
------------------------------|--------------------------------|
--49--------------------------|--------------------------------|
--36--36--------36--36--------|--36--36------36------36--------|
------------------------------|--------------------------------|


   E   E   Q     E   E   Q        E   E   E   E   E   E      E   E   
----------46----46------46----|--46------46------46---------46------|
----------38------------38----|----------38--------------38g38------|
------------------------------|-------------------------------------|
--57--------------------------|-------------------------------------|
--36--36--------36--36--------|--36--36------36------36---------36--|
------------------------------|-------------------------------------|


   E   E   Q     E   E   Q        E   E   E   E   E   E   Q     
----------46----46------46----|--46------46------46------46----|
----------38------------38----|----------38--------------38----|
------------------------------|--------------------------------|
--49--------------------------|--------------------------------|
--36--36--------36--36--------|--36--36------36------36--------|
------------------------------|--------------------------------|


   E   E   Q     E   E   Q        E   E   E   E   E   E   E   E   
----------46----46------46----|--46------46------46------46------|
----------38------------38----|----------38--------------38------|
------------------------------|----------------------------------|
--57--------------------------|----------------------------------|
--36--36--------36--36--------|--36--36------36------36------36--|
------------------------------|----------------------------------|


   E   E   Q     E   E   Q        E   E   E   E   E   E   Q     
----------46----46------46----|--46------46------46------46----|
----------38------------38----|----------38--------------38----|
------------------------------|--------------------------------|
--49--------------------------|--------------------------------|
--36--36--------36--36--------|--36--36------36------36--------|
------------------------------|--------------------------------|


   E   E   Q     E   E   Q        E   E   E   E   E   E   E   E   
----------46----46------46----|--46------46------46------46------|
----------38------------38----|----------38--------------38------|
------------------------------|----------------------------------|
--57--------------------------|----------------------------------|
--36--36--------36--36--------|--36--36------36------36------36--|
------------------------------|----------------------------------|


   E   E   Q     E   E   Q        E   E   E   E   E   E   Q     
----------46----46------46----|--46------46------46------46----|
----------38------------38----|----------38--------------38----|
------------------------------|--------------------------------|
--49--------------------------|--------------------------------|
--36--36--------36--36--------|--36--36------36------36--------|
------------------------------|--------------------------------|


   E   E   Q     E   E   Q        E   E   E   E   E   E   E   E   
----------46----46------46----|--46------46------46------46------|
----------38------------38----|----------38--------------38------|
------------------------------|----------------------------------|
--57--------------------------|----------------------------------|
--36--36--------36--36--------|--36--36------36------36------36--|
------------------------------|----------------------------------|


   E   E   Q     E   E   Q        E   E   E   E   E   E   Q     
----------46----46------46----|--46------46------46------46----|
----------38------------38----|----------38--------------38----|
------------------------------|--------------------------------|
--49--------------------------|--------------------------------|
--36--36--------36--36--------|--36--36------36------36--------|
------------------------------|--------------------------------|


   E   E   Q     E   E   Q        E   E   E   E   E   E   E   E   
----------46----46------46----|--46------46------46------46------|
----------38------------38----|----------38--------------38------|
------------------------------|----------------------------------|
--57--------------------------|----------------------------------|
--36--36--------36--36--------|--36--36------36------36------36--|
------------------------------|----------------------------------|


   Pre-Coro                                                          
   E        E   Q     E   E   Q        E   E   E   E   E   E   Q     
---------------51----51------51----|--51------51------51------51----|
---------------38------------38----|----------38--------------38----|
-----------------------------------|--------------------------------|
--49-------------------------------|--------------------------------|
--36-------36--------36--36--------|--36--36------36------36--------|
-----------------------------------|--------------------------------|


   E   E   Q     E   E   Q        E   E   E   E   E   E   E   E   
----------51----51------51----|--51------51------51------51------|
----------38------------38----|----------38--------------38------|
------------------------------|----------------------------------|
--57--------------------------|----------------------------------|
--36--36--------36--36--------|--36--36------36------36------36--|
------------------------------|----------------------------------|


   E   E   Q     E   E   Q        E   E   E   E   E   E   Q     
----------51----51------51----|--51------51------51------51----|
----------38------------38----|----------38--------------38----|
------------------------------|--------------------------------|
--49--------------------------|--------------------------------|
--36--36--------36--36--------|--36--36------36------36--------|
------------------------------|--------------------------------|


   E   E   Q     E   E   Q        E   E   E   E   E   E   E   E   
----------51----51------51----|--51------51------51------51--51--|
----------38------------38----|----------38--------------38------|
------------------------------|----------------------------------|
--57--------------------------|----------------------------------|
--36--36--------36--36--------|--36--36------36------36------36--|
------------------------------|----------------------------------|


   Coro                                                         
   Q     Q     E   E   E   E      Q     E   E   E   E   E   E   
--------59----59--59--59--59--|--59----59------59------59--59--|
--------38------------38------|--------38--------------38------|
------------------------------|--------------------------------|
--49--------------------------|--------------------------------|
--36----------36--36------36--|--36--------36------36------36--|
------------------------------|--------------------------------|


   Q     Q     E   E   E   E      Q     E   E   E   E   E   E   
--59----59----59--59--59--59--|--59----59------59------59--59--|
--------38------------38------|--------38--------------38------|
------------------------------|--------------------------------|
------------------------------|--------------------------------|
--36----------36--36------36--|--36--------36------36------36--|
------------------------------|--------------------------------|


   Q     Q     E   E   E   E      Q     E   E   E   E   E   E   
--------59----59--59--59--59--|--59----59------59------59--59--|
--------38------------38------|--------38--------------38------|
------------------------------|--------------------------------|
--57--------------------------|--------------------------------|
--36----------36--36------36--|--36--------36------36------36--|
------------------------------|--------------------------------|


   Q     Q     E   E   E   E      Q     E   E   E   E   E   E   
--59----59----59--59--59--59--|--59----59------59------59--59--|
--------38------------38------|--------38--------------38------|
------------------------------|--------------------------------|
------------------------------|--------------------------------|
--36----------36--36------36--|--36--------36------36------36--|
------------------------------|--------------------------------|


   Pre-Coro                                                          
   E        E   Q     E   E   Q        E   E   E   E   E   E   Q     
---------------51----51------51----|--51------51------51------51----|
---------------38------------38----|----------38--------------38----|
-----------------------------------|--------------------------------|
--49-------------------------------|--------------------------------|
--36-------36--------36--36--------|--36--36------36------36--------|
-----------------------------------|--------------------------------|


   E   E   Q     E   E   Q        E   E   E   E   E   E   E   E   
----------51----51------51----|--51------51------51------51------|
----------38------------38----|----------38--------------38------|
------------------------------|----------------------------------|
--57--------------------------|----------------------------------|
--36--36--------36--36--------|--36--36------36------36------36--|
------------------------------|----------------------------------|


   E   E   Q     E   E   Q        E   E   E   E   E   E   Q     
----------51----51------51----|--51------51------51------51----|
----------38------------38----|----------38--------------38----|
------------------------------|--------------------------------|
--49--------------------------|--------------------------------|
--36--36--------36--36--------|--36--36------36------36--------|
------------------------------|--------------------------------|


   Puente                                                                
   E      E   E   E.   S  E   Q        E   E   S  S  E   E   E   E   E   
--59-------------59----------59----|------59------------59------59------|
-------------38----------38--------|--38------------38----------38------|
-----------------------------------|------------------------------------|
-----------------------------------|------------------------------------|
--36-----36------36---36-----36----|------36--36-36-----36--36------36--|
-----------------------------------|------------------------------------|


   Q     E   E   E   E   Q        E   E   S  S  E   Q        Q     
--59--------59----------59----|------59------------59-------59----|
--------38----------38--------|--38------------38--------38g38----|
------------------------------|-----------------------------------|
------------------------------|-----------------------------------|
--36--------36--36------36----|------36--36-36-----36-------------|
------------------------------|-----------------------------------|


   Intro Riff                                                  
   Q          Q     Q     Q        Q     Q     Q     S  S  E   
-------------42----42----42----|--42----42----42--------------|
-------------------------------|------------------------------|
--57---------------------------|--------------------43-43-43--|
--49---------------------------|------------------------------|
--36---------------------------|------------------------------|
-------------------------------|------------------------------|


   Q     Q     Q     Q        Q     Q     E   E      Q     
--------42----42----42----|--42----42----42---------------|
--------------------------|----------------------38g38----|
--57----------------------|-------------------------------|
--49----------------------|-------------------------------|
--36----------------------|------------------36-----------|
--------------------------|-------------------------------|


   Q     Q     Q     Q        Q     Q     Q     S  S  E   
--------42----42----42----|--42----42----42--------------|
--------------------------|------------------------------|
--57----------------------|--------------------41-41-41--|
--49----------------------|------------------------------|
--36----------------------|------------------------------|
--------------------------|------------------------------|


   Q     Q     Q     E   E         E   E   E      E   E   E      E   E   
--------42----42----42------|-------------------------------------------|
----------------------------|--38g38----------38g38----------38g38------|
--57------------------------|-------------------------------------------|
--49------------------------|-------------------------------------------|
--36--------------------36--|---------36--36---------36--36---------36--|
----------------------------|-------------------------------------------|


   Solo Mick Procter                                                          
   E                 E   Q     E   E   Q        E   E   E   E   E   E   Q     
------------------------51----51------51----|--51------51------51------51----|
------------------------38------------38----|----------38--------------38----|
--------------------------------------------|--------------------------------|
--49----------------------------------------|--------------------------------|
--36----------------36--------36--36--------|--36--36------36------36--------|
--------------------------------------------|--------------------------------|


   E   E   Q     E   E   Q        E   E   E   E   E   E      Q     
--51------51----51------51----|--51------51------51---------51----|
----------38------------38----|----------38--------------38g38----|
------------------------------|-----------------------------------|
------------------------------|-----------------------------------|
--36--36--------36--36--------|--36--36------36------36-----------|
------------------------------|-----------------------------------|


   E   E   Q     E   E   Q        E   E   E   E   E   E   Q     
----------51----51------51----|--51------51------51------51----|
----------38------------38----|----------38--------------38----|
------------------------------|--------------------------------|
--57--------------------------|--------------------------------|
--36--36--------36--36--------|--36--36------36------36--------|
------------------------------|--------------------------------|


   E   E   Q     E   E   Q        E   E   E   E   E   E      E   E   
--51------51----51------51----|--51------51------51---------51------|
----------38------------38----|----------38--------------38g38------|
------------------------------|-------------------------------------|
------------------------------|-------------------------------------|
--36--36--------36--36--------|--36--36------36------36---------36--|
------------------------------|-------------------------------------|


   E   E   Q     E   E   Q        E   E   E   E   E   E   Q     
----------51----51------51----|--51------51------51------51----|
----------38------------38----|----------38--------------38----|
------------------------------|--------------------------------|
--49--------------------------|--------------------------------|
--36--36--------36--36--------|--36--36------36------36--------|
------------------------------|--------------------------------|


   E   E   Q     E   E   Q        E   E   E   E   E   E      Q     
--51------51----51------51----|--51------51------51---------51----|
----------38------------38----|----------38--------------38g38----|
------------------------------|-----------------------------------|
------------------------------|-----------------------------------|
--36--36--------36--36--------|--36--36------36------36-----------|
------------------------------|-----------------------------------|


   E   E   Q     E   E   Q        E   E   E   E   E   E   Q     
----------59----59------59----|--59------59------59------59----|
----------38------------38----|----------38--------------38----|
------------------------------|--------------------------------|
--57--------------------------|--------------------------------|
--36--36--------36--36--------|--36--36------36------36--------|
------------------------------|--------------------------------|


   E   E   Q     E   E   Q        E   E   E   E   E   E      Q     
--59------59----59------59----|--59------59------59---------59----|
----------38------------38----|----------38--------------38g38----|
------------------------------|-----------------------------------|
------------------------------|-----------------------------------|
--36--36--------36--36--------|--36--36------36------36-----------|
------------------------------|-----------------------------------|


   E   E   Q     E   E   Q        E   E   E   E   E   E   Q     
----------59----59------59----|--59------59------59------59----|
----------38------------38----|----------38--------------38----|
------------------------------|--------------------------------|
--49--------------------------|--------------------------------|
--36--36--------36--36--------|--36--36------36------36--------|
------------------------------|--------------------------------|


   E   E   Q     E   E   Q        E   E   E   E   E   E      E   E   
--59------59----59------59----|--59------59------59---------59------|
----------38------------38----|----------38--------------38g38------|
------------------------------|-------------------------------------|
------------------------------|-------------------------------------|
--36--36--------36--36--------|--36--36------36------36---------36--|
------------------------------|-------------------------------------|


   E   E   Q     E   E   Q        E   E   E   E   E   E   Q     
----------59----59------59----|--59------59------59------59----|
----------38------------38----|----------38--------------38----|
------------------------------|--------------------------------|
--57--------------------------|--------------------------------|
--36--36--------36--36--------|--36--36------36------36--------|
------------------------------|--------------------------------|


   E   E   Q     E   E   Q        E   E   E   E   E   E      Q     
--59------59----59------59----|--59------59------59---------59----|
----------38------------38----|----------38--------------38g38----|
------------------------------|-----------------------------------|
------------------------------|-----------------------------------|
--36--36--------36--36--------|--36--36------36------36-----------|
------------------------------|-----------------------------------|


   Outro                                      
   H         H            H         H         
----------------------|----------------------|
----------------------|----------------------|
--57--------57--------|--57--------57--------|
--49--------49--------|--49--------49--------|
--36--------36--------|--36--------36--------|
----------------------|----------------------|


   |--3--|  |--3--|  |--3--|  |--3--|  |--3--|  |--3--|  |--3--|  |--3--|  
   S  S  S  S  S  S  S  S  S  S  S  S  S  S  S  S  S  S  S  S  S  S  S  S  
--------------------------------------------------------------------------|
--------------------------------------------------------------------------|
--57----------------------------------------------------------------------|
--49-57-49-57-49-57-49-57-49-57-49-57-49-57-49-57-49-57-49-57-49-57-49-57-|
--36----36----36----36----36----36----36----36----36----36----36----36----|
--------------------------------------------------------------------------|


   |--3--|  |--3--|  |--3--|  |--3--|  |--3--|  |--3--|  |--3--|  |--3--|  
   S  S  S  S  S  S  S  S  S  S  S  S  S  S  S  S  S  S  S  S  S  S  S  S  
--------------------------------------------------------------------------|
--------------------------------------------------------------------------|
--------------------------------------------------------------------------|
--49-57-49-57-49-57-49-57-49-57-49-57-49-57-49-57-49-57-49-57-49-57-49-57-|
--36----36----36----36----36----36----36----36----36----36----36----36----|
--------------------------------------------------------------------------|


   |--3--|  |--3--|  |--3--|  |--3--|  |--3--|  |--3--|  |--3--|  |--3--|  
   S  S  S  S  S  S  S  S  S  S  S  S  S  S  S  S  S  S  S  S  S  S  S  S  
--------------------------------------------------------------------------|
--------------------------------------------------------------------------|
--------------------------------------------------------------------------|
--49-57-49-57-49-57-49-57-49-57-49-57-49-57-49-57-49-57-49-57-49-57-49-57-|
--36----36----36----36----36----36----36----36----36----36----36----36----|
--------------------------------------------------------------------------|


   |--3--|  |--3--|  |--3--|  |--3--|  |--3--|  |--3--|  |--3--|  |--3--|  
   S  S  S  S  S  S  S  S  S  S  S  S  S  S  S  S  S  S  S  S  S  S  S  S  
--------------------------------------------------------------------------|
--------------------------------------------------------------------------|
--------------------------------------------------------------------------|
--49-57-49-57-49-57-49-57-49-57-49-57-49-57-49-57-49-57-49-57-49-57-49-57-|
--36----36----36----36----36----36----36----36----36----36----36----36----|
--------------------------------------------------------------------------|


   |--3--|  |--3--|  |--3--|  |--3--|  |--3--|  |--3--|  |--3--|  |--3--|  
   S  S  S  S  S  S  S  S  S  S  S  S  S  S  S  S  S  S  S  S  S  S  S  S  
--------------------------------------------------------------------------|
--------------------------------------------------------------------------|
--------------------------------------------------------------------------|
--49-57-49-57-49-57-49-57-49-57-49-57-49-57-49-57-49-57-49-57-49-57-49-57-|
--36----36----36----36----36----36----36----36----36----36----36----36----|
--------------------------------------------------------------------------|


   |--3--|  |--3--|  |--3--|  |--3--|  |--3--|  |--3--|  |--3--|  |--3--|  
   S  S  S  S  S  S  S  S  S  S  S  S  S  S  S  S  S  S  S  S  S  S  S  S  
--------------------------------------------------------------------------|
--------------------------------------------------------------------------|
--------------------------------------------------------------------------|
--49-57-49-57-49-57-49-57-49-57-49-57-49-57-49-57-49-57-49-57-49-57-49-57-|
--36----36----36----36----36----36----36----36----36----36----36----36----|
--------------------------------------------------------------------------|


   |--3--|  |--3--|  |--3--|  |--3--|  |--3--|  |--3--|  |--3--|  |--3--|  
   S  S  S  S  S  S  S  S  S  S  S  S  S  S  S  S  S  S  S  S  S  S  S  S  
--------------------------------------------------------------------------|
--------------------------------------------------------------------------|
--------------------------------------------------------------------------|
--49-57-49-57-49-57-49-57-49-57-49-57-49-57-49-57-49-57-49-57-49-57-49-57-|
--36----36----36----36----36----36----36----36----36----36----36----36----|
--------------------------------------------------------------------------|


   |---3---|   |---3---|   |---3---|   |---3---|   
   E   E   E   E   E   E   E   E   E   E   E   E   
--------------------------------------------------|
--------------------------------------------------|
--------------------------------------------------|
--49--57--49--57--49--57--49--57--49--57--49--57--|
--36--36--36--36--36--36--36--36--36--36--36--36--|
--------------------------------------------------|


   |---3---|   |---3---|   |---3---|   |---3---|   
   E   E   E   E   E   E   E   E   E   E   E   E   
--------------------------------------------------|
--------------------------------------------------|
--------------------------------------------------|
--49--57--49--57--49--57--49--57--49--57--49--57--|
--36--36--36--36--36--36--36--36--36--36--36--36--|
--------------------------------------------------|


   |---3---|   |---3---|   |---3---|   |---3---|   
   E   E   E   E   E   E   E   E   E   E   E   E   
--------------------------------------------------|
--------------------------------------------------|
--------------------------------------------------|
--49--57--49--57--49--57--49--57--49--57--49--57--|
--36--36--36--36--36--36--36--36--36--36--36--36--|
--------------------------------------------------|


   |---3---|   |---3---|   |---3---|   |---3---|   
   E   E   E   E   E   E   E   E   E   E   E   E   
--------------------------------------------------|
--------------------------------------------------|
--------------------------------------------------|
--49--57--49--57--49--57--49--57--49--57--49--57--|
--36--36--36--36--36--36--36--36--36--36--36--36--|
--------------------------------------------------|


   |---3---|   |---3---|   |---3---|   |---3---|   
   E   E   E   E   E   E   E   E   E   E   E   E   
--------------------------------------------------|
--------------------------------------------------|
--------------------------------------------------|
--49--57--49--57--49--57--49--57--49--57--49--57--|
--36------36------36------36------36------36------|
--------------------------------------------------|


   |---3---|   |---3---|   |---3---|   |---3---|   
   E   E   E   E   E   E   E   E   E   E   E   E   
--------------------------------------------------|
--------------------------------------------------|
--------------------------------------------------|
--49--57--49--57--49--57--49--57--49--57--49--57--|
--36------36------36------36------36------36------|
--------------------------------------------------|


   |---3---|   |---3---|   |---3---|   |---3---|                         
   E   E   E   E   E   E   E   E   E   E   E   E      W                  
--------------------------------------------------|--------------------||
--------------------------------------------------|--------------------||
--------------------------------------------------|--------------------||
--49--57--49--57--49--57--49--57--49--57--49--57--|--49----------------||
--36------36------36------36------36------36------|--36----------------||
--------------------------------------------------|--------------------||



Drums Legend:
---------------
Drums:

31...Sticks
37...Side Stick
38...Snare
40...Electric Snare
35...Acoustic Bass Drum
36...Bass Drum
41...Low Floor Tom
43...High Floor Tom
45...Low Tom
47...Low-Mid Tom
48...Hi-Mid Tom
50...High Tom


Cymbals:

42...Closed Hi Hat
44...Pedal Hi Hat
46...Open Hi Hat
49...Crash Cymbal 1
51...Ride Cymbal 1
52...Chinese Cymbal
55...Splash Cymbal
57...Crash Cymbal 2
59...Ride Cymbal 2


Others:

27...High Q
28...Slap
29...Scratch Push
30...Scratch Pull
32...Square Click
33...Metronome Click
34...Metronome Bell
39...Hand Clap
53...Ride Bell
54...Tambourine
56...Cowbell
58...Vibraslap
60...High Bongo
61...Low Bongo
62...Mute High Conga
63...Open High Conga
64...Low Conga
65...High Timbale
66...Low Timbale
67...High Agogo
68...Low Agogo
69...Cabasa
70...Maracas
71...Short Whistle
72...Long Whistle
73...Short Guiro
74...Long Guiro
75...Claves
76...High Wood Block
77...Low Wood Block
78...Mute Cuica
79...Open Cuica
80...Mute Triangle
81...Open Triangle
82...Shaker
83...Jingle Bell
84...Bell Tree
85...Castinets
86...Mute Surdo
87...Open Surdo



Duration Legend
---------------
W - whole
H - half
Q - quarter
E - 8th
S - 16th
T - 32nd
X - 64th
. - note dotted
|-n-|  - n-tuplets



Tablature Legend
----------------
L - tied note
x - dead note
g - grace note
(n) - ghost note
> - accentuded note
NH - natural harmonic
AH - artificial harmonic
TH - tapped harmonic
SH - semi harmonic
PH - pitch harmonic
h - hammer on
p - pull off
b - bend
br - bendRelease
pb - preBend
pbr - preBendRelease
brb - bendReleaseBend
\n/ - tremolo bar dip
\n - tremolo bar dive
-/n - tremolo bar Release up
/n\ - tremolo bar inverted dip
/n - tremolo bar return
-\n - tremolo bar Release down
S - shift slide
s - legato slide
/ -  slide into from below or out of upwards
\ -  slide into from above or out of downwards
~ - vibrato
W - wide vibrato
tr - trill
TP - tremolo picking
T - tapping
S - slap
P - pop
< - fade in
^ - brush up
v - brush down
Suggest correction
Creating personal tab
Creating personal tab
You can edit any tab online and save it as your Personal.

You can edit, replace or remove any tab part or add personal notes – all changes will be seen only by you.

Personal tabs can be accessed anytime from any device, even offline.
Learn more »
comments
print report bad tab
guest
You may want to rate the tab now too:
select rating
Wanna post a correction for this tab? Suggest correction