Oops, an error
Loading. Please wait.

Hearthstone Theme Tab

version 1
version 1

Whole song

Interactive

62,654 views 369 this week
2 commentsread comments
1 2 3 4 5
excellent!
x 13
add to favorites
launch autoscroll
font size
0
reset
how to read this tab
guitar tuner
Tab Pro tools
  • play this tab
  • loop segment
  • change instrument
  • show fretboard
  • metronome
×
Best way to learn
"Hearthstone Theme"
Autoscroll
slow
fast
+/-
esc
set tempo
stop
Contributor
Tuning
D A D G B E
Part 1
e-------------------------------------|
b---3h6p3-----------------------------|
g---------5--2h5p2----2--2-5p0--------|
d------------------5--0h3-----0--3-2--|
a---------------------0---------------|
d---0-----2--3-----5------------------|

e--10h13p10---------------------------|
b----------13-10h13p10------10-13---6-|
g---------------------12---10----12---|
d-------------------------12----------|
a-------------------------------------|
d--0-0--------0-0-------------------3-|

And the harp bit at the end
e-5-8-5-------|
b------8-5----|
g---------5-7-|
d-------------|
a-------------|
d-------------|

Part 2
e-------------------------------------------------------|
b-------------------------------------------------------|
g-------------------------------------------------------|
d--0-0h2h3-2----0-0h2h3p2---0-0h2h3-2h3p2p0-------------|
a---0-------3--0-0-----------0-------------3-0h3---5----|
d-----------------------------------------------5/7-5h7-|

e-------------------------------------------------------|
b-------------------------------------------------------|
g-------------------------------------------------------|
d--0-0h2h3-2----0-0h2h3/5---0-0h2h3-2h3h5p3p2p0---------|
a-0-0-------3--0-0-----------0--------------------------|
d-------------------------------------------------------|

e-------------------------------------------------------|
b-------------------------------------------------------|
g--2h5p2-----2h5p2-----2h5p2-0h2p0----------------------|
d-------5p0h5-----5p0h5---------------------------------|
a---------------------------------7p5p3h5---------------|
d-------------------------------------------------------|

Part 3
e-------------------------------------------------------|
b-------------------------------------------------------|
g-------------------------------------------------------|
d-3--3--3-5-7/5--0h3p0-----0h3p0------3-3-5-7p5-5p3p2---|
a--3--3---------------3p0h3-----3p0h3--3-------3--------|
d-------------------------------------------------------|

e-------------------------------------------------------|
b-------------------------------------------------------|
g-------------------------------------------------------|
d-0h3p0-----0--0---3--3--3-5-7/5--0h3p0-----0h3p0-------|
a------3p0h3-3--3---3--3---------------3p0h3-----3p0h3--|
d-------------------------------------------------------|

e---------------------------------------|
b---------------------------------------|
g---------------------------------------|
d-3--3-5-7p5-5-5p3-0h3p0------0---------|
a--3--------3-----5-----3p0h3---0-------|
d---------------------------------0h3p0-|

(Part 2 again)

Part 4
e-----------------------------------------|
b-----------------------------------------|
g-----------------------------------------|
d-----------------------------------------|
a--0-0-----0-0-----0-0--0-0--0-0--5p3p2p0-|
d-----------------------------------------|

e-----------------------------------------|
b-----------------------------------------|
g-----------------------------------------|
d-----------------------------------------|
a--0-0--0-0--0-0--0-0--0-0--0-0--0-0--0-0-|
d-----------------------------------------|

Part 5
e-----------------------------|
b-----------------------------|
g-----------------------------|
d---2--2--3--2--2--2--0--2----| 3x
a--0--0--0--0--0--0--0--0-----|
d-----------------------------|

e-----------------------------|
b-----------------------------|
g-----------------------------|
d---2--2--3--2--2--2----------|
a--0--0--0--0--0--0--0-5320---|
d-----------------------------|

e-----------------------------|
b-----------------------------|
g-----------------------------|
d---2--2--3--2--2--2----------|
a--0--0--0--0--0--0--0-532023-|
d-----------------------------|

e-----------------------------|
b-----------------------------|
g-----------------------------| 2x
d--2--2--3--2--2--2-----------|
a----0--0--0--0--0--0-532023--|
d-----------------------------|

Part 6 (Not too sure about this)
e----------------------------------------------------------------|
b----------------------------------------------------------------|
g----------------------------------------------------------------|
d--------------------------2--5--5--5--8-8-7--5--3-3h5h7---------|
a--070--070-------------0-2--5--7--5---------7-----------5-0-----|
d-----------2-5-2-532235-------------------------------------5-0-|

(Finish with Part 2)
comments
print report bad tab
2 comments total.
+1 reply
GreatPotate wrote on January 30 2014, 05:55 pm

Haven't played it yet, but this looks great. Thanks for doing an interpretation of Blizz's amazing soundtrack to this awesome game. Friend me at GreatPotate. (:

0 reply
TrueSkyRocker wrote on February 11 2014, 01:43 pm

Can anyone put this tab in GTP? I can't figure the rhythm :)

I want to post or [tab]
guest
You may want to rate the tab now too:
select rating
Please do not post tabs as comments. Select "correction" instead!