Oops, an error
Loading. Please wait.

3X3 Bass Tab

1,277 views 6 this week
no commentswrite comment
1 2 3 4 5
2 more votes to show rating
add to favorites
launch autoscroll
font size
0
reset
guitar tuner
Autoscroll
slow
fast
+/-
esc
set tempo
stop
Help us to improve Ultimate-Guitar.com Take our survey!
×
Author
Difficulty
Tuning
novice
D A D G B E
-------------------------------------------------------------------------------
                             3x3 - Bloc Party
-------------------------------------------------------------------------------
Tabbed by: BassistBentley

Tuning: Drop D

actual intro/verse:
G|-----------------------------------|-----------------------------------|
D|-----------------------------------|-----------------------------------|
A|--5-5-5-5-5-5-5-5-5-5-5-5-5-5-5-5--|--5-5-5-5-5-5-5-5-5-5-5-5-5-5-5-5--| x5
D|-----------------------------------|-----------------------------------|

the fun way to play the verse:
G|-----------------------------------|-----------------------------------|
D|-----------------------------------|--3-3-3-3-3-3-3-3-3-3-3-3-3-3-3-3--|
A|--5-5-5-5-5-5-5-5-5-5-5-5-5-5-5-5--|-----------------------------------|
D|-----------------------------------|-----------------------------------|

G|-----------------------------------|-----------------------------------|
D|-----------------------------------|-----------------------------------|
A|--4-4-4-4-4-4-4-4-4-4-4-4-4-4-4-4--|--5-5-5-5-5-5-5-5-5-5-5-5-5-5-5-5--|
D|-----------------------------------|-----------------------------------|

G|-----------------------------------|-----------------------------------|
D|--3-3-3-3-3-3-3-3-3-3-3-3-3-3-3-3--|-----------------------------------|
A|-----------------------------------|--4-4-4-4-4-4-4-4-4-4-4-4-4-4-4-4--|
D|-----------------------------------|-----------------------------------|

G|-----------------------------------|-----------------------------------|
D|-----------------------------------|-----------------------------------|
A|--5-5-5-5-5-5-5-5-5-5-5-5-5-5-5-5--|--5-5-5-5-5-5-5-5-5-5-5-5-5-5-5-5--|
D|-----------------------------------|-----------------------------------|

G|-----------------------------------|-----------------------------------|
D|-----------------------------------|-----------------------------------|
A|--5-5-5-5-5-5-5-5-5-5-5-5-5-5-5-5--|--5-5-5-5-5-5-5-5-5-5-5-5-5-5-5-5--|
D|-----------------------------------|-----------------------------------|

chorus
G|-----------------------------------|-----------------------------------|
D|-----------------------------------|-----------------------------------|
A|-----------------------------------|-----------------------------------|
D|--7-7-7-0-7-7-7-7-7-7-7-7-7-7-7-7--|--8-8-8-8-8-8-8-8-8-8-8-8-8-8-8-8--|

G|-----------------------------------|-----------------------------------|
D|-----------------------------------|-----------------------------------|
A|--4-4-4-4-4-4-4-4-4-4-4-4-4-4-4-4--|--5-5-5-5-5-5-5-5-5-5-5-5-5-5-5-5--|
D|-----------------------------------|-----------------------------------|

G|-----------------------------------|-----------------------------------|
D|-----------------------------------|-----------------------------------|
A|-----------------------------------|-----------------------------------|
D|--7-7-7-0-7-7-7-7-7-7-7-7-7-7-7-7--|--8-8-8-8-8-8-8-8-8-8-8-8-8-8-8-8--|

G|-----------------------------------|-----------------------------------|
D|-----------------------------------|-----------------------------------|
A|--4-4-4-4-4-4-4-4-4-4-4-4-4-4-4-4--|--5-0-5-5-5-5-5-5-5-0-5-5-5-5-0-5--|
D|-----------------------------------|-----------------------------------|

actual verse (or the fun one):
G|-----------------------------------|-----------------------------------|
D|-----------------------------------|-----------------------------------|
A|--5-5-5-5-5-5-5-5-5-5-5-5-5-5-5-5--|--5-5-5-5-5-5-5-5-5-5-5-5-5-5-5-5--| x5
D|-----------------------------------|-----------------------------------|

chorus
G|-----------------------------------|-----------------------------------|
D|-----------------------------------|-----------------------------------|
A|-----------------------------------|-----------------------------------|
D|--7-7-7-0-7-7-7-7-7-7-7-7-7-7-7-7--|--8-8-8-8-8-8-8-8-8-8-8-8-8-8-8-8--|

G|-----------------------------------|-----------------------------------|
D|-----------------------------------|-----------------------------------|
A|--4-4-4-4-4-4-4-4-4-4-4-4-4-4-4-4--|--5-5-5-5-5-5-5-5-5-5-5-5-5-5-5-5--|
D|-----------------------------------|-----------------------------------|

G|-----------------------------------|-----------------------------------|
D|-----------------------------------|-----------------------------------|
A|-----------------------------------|-----------------------------------|
D|--7-7-7-0-7-7-7-7-7-7-7-7-7-7-7-7--|--8-8-8-8-8-8-8-8-8-8-8-8-8-8-8-8--|

G|-----------------------------------|-----------------------------------|
D|-----------------------------------|-----------------------------------|
A|--4-4-4-4-4-4-4-4-4-4-4-4-4-4-4-4--|--5-0-5-5-5-5-5-5-5-0-5-5-5-5-0-5--|
D|-----------------------------------|-----------------------------------|

break

G|-----------------------------------|-----------------------------------|
D|-----------------------------------|-----------------------------------|
A|-----------------------------------|-----------------------------------|
D|--7-7-7-0-7-7-7-7-7-7-7-7-7-7-7-7--|--8-8-8-8-8-8-8-8-8-8-8-8-8-8-8-8--|

G|-----------------------------------|-----------------------------------|
D|-----------------------------------|-----------------------------------|
A|--4-4-4-4-4-4-4-4-4-4-4-4-4-4-4-4--|--5-5-5-5-5-5-5-5-5-5-5-5-5-5-5-5--|
D|-----------------------------------|-----------------------------------|

G|-----------------------------------|-----------------------------------|
D|-----------------------------------|-----------------------------------|
A|-----------------------------------|-----------------------------------|
D|--7-7-7-0-7-7-7-7-7-7-7-7-7-7-7-7--|--8-8-8-8-8-8-8-8-8-8-8-8-8-8-8-8--|

G|-----------------------------------|-----------------------------------|
D|-----------------------------------|-----------------------------------|
A|--4-4-4-4-4-4-4-4-4-4-4-4-4-4-4-4--|--5-5-0-5-5-5-5-5-0-5-5-5-5-5-0-5--|
D|-----------------------------------|-----------------------------------|

G|-----|
D|-----|
A|-----|
D|--0--|

===============================================================================
Suggest correction
Give kudos to tab author, rate the tab!
1 2 3 4 5
comments
print report bad tab
guest
You may want to rate the tab now too:
select rating
Wanna post a correction for this tab? Suggest correction