Oops, an error
Loading. Please wait.

Always New Depths Tab

version 2
version 2

Intro

Whole song

Interactive

3,591 views 12 this week
5 commentsread comments
1 2 3 4 5
excellent!
x 1
add to favorites
launch autoscroll
font size
0
reset
how to read this tab
guitar tuner
Tab Pro tools
  • play this tab
  • loop segment
  • change instrument
  • show fretboard
  • metronome
Autoscroll
slow
fast
+/-
esc
set tempo
stop
Contributor
Guitar 1 (left speaker)
intro (1st part) play twice
e---------------------------------------------------------------------------|
b---------------------------------------------------------------------------|
g-9-11-11-9-11-11-9-11--9-11-11-12-12-11-------------------------12-12-11-9-|
d----------------------------------------9-9-9-9-9-9-9-9-9-9-9-9------------|
a---------------------------------------------------------------------------|
e---------------------------------------------------------------------------|

2nd part
e----------------------------------------|
b----------------------------------------|
g-9-11-11-9-11-11-9-11--9-11-11-12-12-11-|
d----------------------------------------|  play 4x
a----------------------------------------|
e----------------------------------------|

verse
e--------------------------------------------------|
b--------------------------------------------------|
g-11-11-11-11-11-11-11-11-11-11-11-11-12-12-12-12--|
d--------------------------------------------------|  play numerous times till
a--------------------------------------------------|  pre-chorus
e--------------------------------------------------|

prechorus  (i can't really tell how it goes)
e-------------|
b-------------|
g-(6~)(6//2~)-|
d--7~--7//4~--|
a-------------|
e-------------|

chorus  (you can play either way since you can wing it, either the prechorus again or 
the 7 and 4 in the rhythm they're in)
e---------------------------------------------------------------|
b---------------------------------------------------------------|
g-(6-6-6-6-6-6-6-6-6-6-6-6-6-6-6-2-2-2-2-2-2-2-2-2-2-2-2-2-2-2)-|
d--7-7-7-7-7-7-7-7-7-7-7-7-7-7-7-4-4-4-4-4-4-4-4-4-4-4-4-4-4-4--|
a---------------------------------------------------------------|
e---------------------------------------------------------------|

play verse, chorus again
bridge (guitar 2 plays for awhile till guitar 1 kicks in)
e-10-10----------|
b----------10-10-|
g----------------|
d----------------|
a----------------|
e----------------|

you pretty much play the bridge till the instrumental part at the end

guitar 2 (right speaker)
intro
e----------------7------------------------------|
b-10---10---10-----10-----10---10---10-----10---|
g----7----7----7------7------7----7----7-9----9-|
d-----------------------------------------------|
a-----------------------------------------------|
e-----------------------------------------------|

e----------------7-----------------------------|
b-10---10---10-----10-----10---10---10---12s14-|
g----7----7----7------7------7----7----7-------|
d----------------------------------------------|
a----------------------------------------------|
e----------------------------------------------|

verse  (1st riff)
e---------------------------------------------------------------|
b-10---10---10---10------------------------10---10---10---10----|
g----7----7----7----7--7-7-7-7--9--9--9--9----7----7----7----7--|
d----------------------9-9-9-9-11-11-11-11----------------------|
a---------------------------------------------------------------|
e---------------------------------------------------------------|

e---------------------|
b-10---10---10---10---|
g----7----7----7----7-|
d---------------------|
a---------------------|
e---------------------|

2nd riff
e------------------------------------------------------------|
b-10---10---10---10---------------------10---10---10---10----|
g----7----7----7----7--7-7-7-7-6-6-6-6-----7----7----7----7--|
d----------------------9-9-9-9-7-7-7-7-----------------------|
a------------------------------------------------------------|
e------------------------------------------------------------|

e---------------------|
b-10---10---10---10---|
g----7----7----7----7-|
d---------------------|
a---------------------|
e---------------------|

you play the 1st riff 1x, then 2nd riff 1x and keep switching.  figure out when to play which riff

pre-chorus/chorus
e-------------------------------------------------------------------------|
b-------------------------------------------------------------------------|
g-7-7-7-7-7-7-7-7--9--9--9--9--9--9--9--9-7-7-7-7-7-7-7-7-6-6-6-6-6-6-6-6-|
d-9-9-9-9-9-9-9-9-11-11-11-11-11-11-11-11-9-9-9-9-9-9-9-9-7-7-7-7-7-7-7-7-|
a-------------------------------------------------------------------------|
e-------------------------------------------------------------------------|

e---------------------------------------------------------------------------------|
b---------------------------------------------------------------------------------|
g-7-7-7-7-7-7-7-7--9--9--9--9--9--9--9--9-7-7-7-7-7-7-7-7-11-11-11-11-11-11-11-11-|
d-9-9-9-9-9-9-9-9-11-11-11-11-11-11-11-11-9-9-9-9-9-9-9-9-12-12-12-12-12-12-12-12-|
a---------------------------------------------------------------------------------|
e---------------------------------------------------------------------------------|

2nd verse
e-9----9----9----10-9----9----9----9-------9----|
b---10---10---10------10---10---10---10------10-|
g---------------------------------------12------|
d-----------------------------------------------|
a-----------------------------------------------|
e-----------------------------------------------|

bridge
e---------------------------------------------------------------------|
b---10------10------10------10-------10-------10-------10-------10----|
g------11------11------11------11-------11-------11-------11-------11-| 2x
d-9-------9-------9-------9-------11-------11-------11-------11-------|
a---------------------------------------------------------------------|
e---------------------------------------------------------------------|

outro
e------------------------------|
b--------------these are 11s---|
g-4-/6-/9-/12-1111111111111111-|
d-x-/x-/x-/-x--x-x-x-x-x-x-x-x-| continue till instrumental ending
a-2-/4-/7-/10--9-9-9-9-9-9-9-9-|
e------------------------------|
comments
We did not receive enough feedback on this tab! Please rate:
print report bad tab
1 2 3 4 5
5 comments total. Showing first comments.
0 reply
MaXiMuse wrote on July 25 2008, 11:32 am

I think it would be better if you didn`t seperate guitar 1 & 2. And the intro for guitar isn`t correct as I hear it. But the rest is good. Bloc Party isn`t always easy to tab out.

0 reply
MaXiMuse wrote on July 25 2008, 11:34 am

No, sorry the 2nd guitar intro is correct.

0 reply
MaXiMuse wrote on July 25 2008, 11:37 am

2nd guitar intro:

B|-10---10---|
G|----7----7-|
That`s the only wrong thing

I want to post or [tab]
guest
You may want to rate the tab now too:
select rating
Please do not post tabs as comments. Select "correction" instead!