Oops, an error
Loading. Please wait.

Answer Tab

1,530 views 1 this week
no commentswrite comment
1 2 3 4 5
1 last vote to show rating
add to favorites
launch autoscroll
font size
0
reset
how to read this tab
guitar tuner
Autoscroll
slow
fast
+/-
esc
set tempo
stop
Help us to improve Ultimate-Guitar.com Take our survey!
×
Author
Difficulty
novice
Brilliant song, and about time someone tabbed it :)

Intro
Possibly wrong cos its hard to tab.
But this is the gist of it anyways :)

Kele - Tremolo
e|-----------------------------|
B|-----------------------------|
G|77777777777777777777777777777|
D|-----------------------------|
A|-----------------------------|
E|-----------------------------|

Russell - Something like this
e|---------------------------------------tremolo--|
B|----------------------------------------\/------|
G|7/6/7--7/6-6/9---7/9--11/9--11/9--11/9-99999999-|
D|------------------------------------------------|
A|------------------------------------------------|
E|------------------------------------------------|

Verse
Kele
e|-----------------------------------------------------------------|
B|-----------------------------------------------------------------|
G|7777777777777777777777777777777777777777777777777777777777777777-|
D|7777777777777777777777777777777777777777777777777777777777777777-|
A|5555555555555555544444444444444455555555555555555444444444444444-|
E|-----------------------------------------------------------------|

Changes to this
e|------------------------------------------------------------|
B|------------------------------------------------------------|
G|44444444444666666666666666644444444444444446666666666666666-|
D|44444444444666666666666666644444444444444446666666666666666-|
A|22222222222444444444444444422222222222222224444444444444444-|
E|------------------------------------------------------------|

Russell
This is played over the top of Kele's second riff
e|---------------------------------|
B|---------------------------------|
G|9-9-9-9-6-6-6-6-9-9-9-9-6-6-6-6--|
D|-9-9-9-9-7-7-7-7-9-9-9-9-7-7-7-7-|
A|---------------------------------|
E|---------------------------------|

Play that through again

Chorus
Russell
e|-----------------------------|
B|-----------------------------|
G|11-11-9-12-11-9---7-7--10-10-|
D|11-11-9-12-11-9-55-5-88--8---|
A|-----------------------------|
E|-----------------------------|

Kele
e|-------------------------------|
B|-------------------------------|
G|777777777777777----------------|
D|777777777777777555555588888888-|
A|555555555555555555555588888888-|
E|---------------333333366666666-|

After the chorus, you just strum a D powerchord until the verse

Kele is same as other verse

Russell plays this
e|--------------------------------|
B|--------------------------------|
G|14--14--14--14--11--11--11--9---|
D|--16--16--16--16--12--12--12-11-|
A|--------------------------------|
E|--------------------------------|X2

e|---------------------------------|
B|---------------------------------|
G|6-6-6-6-7-7-7-7-6-6-6-6-7-7-9-9--|
D|-7-7-7-7-7-7-7-7-7-7-7-7-7-7-7-7-|
A|---------------------------------|
E|---------------------------------|

Chorus is same

Breakdown

Russell
e|--------------------------------|
B|--------------------------------|
G|7777777777777777777777777777777-|
D|xxxxxxxxxxxxxxxxxxxxxxxxxxxxxxx-|
A|--------------------------------|
E|--------------------------------|

Then
e|----------------------------------|
B|----------------------------------|
G|777777777777777666666666666622222-|
D|----------------------------------|
A|----------------------------------|
E|----------------------------------|

Then
e|55555555555555559999999999999995555555555555551010101010101010-|
B|---------------------------------------------------------------|
G|---------------------------------------------------------------|
D|---------------------------------------------------------------|
A|---------------------------------------------------------------|
E|---------------------------------------------------------------|

Outro - For this I havent written how many tinmes you play
each part, I've just written them out
Its not hard to figure out how many times you play them

Russell
e|9-9-9-9-9-9-9-9-9-9-9-9-9-9-5555555555555555-|
B|10101010101010101010101010107777777777775555-|
G|---------------------------------------------|
D|---------------------------------------------|
A|---------------------------------------------|
E|---------------------------------------------|

e|10101010101010101010101010101010109-9-9-9-9-9-9-9-9-9-9-9-9-9-9-9-|
B|101010101010101010101010101010101010101010101010101010101010101010|
G|------------------------------------------------------------------|
D|------------------------------------------------------------------|
A|------------------------------------------------------------------|
E|------------------------------------------------------------------|

e|10-9--7-5-3-|
B|10-10-9-7-5-|
G|------------|
D|------------|
A|------------|
E|------------|

e|10-|
B|10-|
G|---|
D|---|
A|---|
E|---|Play this until the end

Kele
e|--------------------------------|
B|--------------------------------|
G|--------------------------------|
D|00000-00000-000-00000-00000-000-|
A|--------------------------------|
E|--------------------------------|

e|---------------------------------|
B|---------------------------------|
G|66666666666666644444444444444444-|
D|---------------------------------|
A|---------------------------------|
E|---------------------------------|

I'll figure the rest out later 
Suggest correction
Give kudos to tab author, rate the tab!
1 2 3 4 5
comments
print report bad tab
guest
You may want to rate the tab now too:
select rating
Wanna post a correction for this tab? Suggest correction