Oops, an error
Loading. Please wait.

Biko Tab

version 1
version 1

Acoustic

Whole song

Interactive

5,559 views 6 this week
4 commentsread comments
1 2 3 4 5
x 5
add to favorites
launch autoscroll
font size
0
reset
how to read this tab
guitar tuner
Autoscroll
slow
fast
+/-
esc
set tempo
stop
Help us to improve Ultimate-Guitar.com Take our survey!
×
Author
Difficulty
novice
                       Tabbed By: Mark Peters
                  Email: markpeterz@hotmail.co.uk


This is a song that came out two days ago on the new 'Intimacy' album.

It's pretty easy to play as it's the same all the way through. It can probably be played 
variety of ways, this is the easiest way i figured out to play it.

The best fingering structure is to use your middle and pinky finger for the first chord 
that leaves your index finger free to apply on the 1st fret B string when it comes to 
the second pattern.

Tuning: Standard

Capo: 5th Fret

e|-------------------------------------------------------------------------|
B|------0------0------------0-----0----------------------------------------|
G|----4---4------4--------2---2-----2------(x3)----------------------------|
D|--2-------2------2----0-------0-----0------------------------------------|
A|-------------------------------------------------------------------------|
E|-------------------------------------------------------------------------|

e|-------------------------------------------------------------------------|
B|-------1-----1-----------0-----0-----------------------------------------|
G|-----4---4-----4-------4---4-----4---------------------------------------|
D|---2-------2-----2---2-------2-----2-------------------------------------|
A|-------------------------------------------------------------------------|
E|-------------------------------------------------------------------------|
Suggest correction
comments
print report bad tab
4 comments total. Showing first comments.
0 reply
lostandfound. 10 Aug 25, 2008 12:06 PM

How to tabs like this even get on the site?
A Capo? Come on


e|-----------------------------------------------------------------------------------|
B|------5------5------------5-----5---------------------6------6----------5-----5----|
G|----5---5------7--------5---5-----5------(x3)-------5---5------5------5---5-----5--|
D|--7-------7------7----5-------5-----5-------------7-------7------7--7-------7-----7|
A|-----------------------------------------------------------------------------------|
E|-----------------------------------------------------------------------------------|

0 reply
mapeterz 537 Aug 25, 2008 05:23 PM

hmmm... what exactly is the difference? Sure they don't play with a capo, but what you've written is exactly what i've written just with no capo? Get a grip mate.

0 reply
mapeterz 537 Aug 25, 2008 05:24 PM

well not exactly.. but lets not be anal.

guest
You may want to rate the tab now too:
select rating
Wanna post a correction for this tab? Suggest correction